Log ind         eller        Opret en gratis konto
 
  Guitaren & Bassen    Gribebrættet    Stemning    Tabs?    Akkorder    Skalaer    Kvintcirklen    Intervaller

Hvordan læser man tabs?

 lær at læse tabs rigtigt

Hvad er tabs

Taps er en smart måde at begynde at spiller sange på, da man ikke behøver at kunne hverken
noder akkorder eller have anden viden om guitar/Bas/Klaver.

Tabs læses ved, at man holder en finger på det bånd som tallene viser,
 på den streng som tallet står på. Så hvis der f.esk står

E|--3----------------------------|

betyder det er man skal sætte den finger i 3 bånd på den tykke E streng.


Dette er en oversigt over et tabsdiagram
e|-------------------------------|Streng 1 ( Den Tynde )
B|-------------------------------|
G|-------------------------------|
D|-------------------------------|
A|-------------------------------|
E|-------------------------------|
Streng 6 ( Den tykke )

G akkorden

Måden du læser den på er ved at kigge på de tal der står på de forskellige strenge,
tallene er det bånd du skal have din finger på for at spille tonen i akkord.
Så hvis du skal sætte en finger i bånd 3, skal du tælle fra toppen af, (der hvor stemmeskruerne sidder) og ned.

e|--3----------------------------|
B|--3----------------------------|
G|--0----------------------------|
D|--0----------------------------|
A|--2----------------------------|
E|--3----------------------------|

 
 


Kontakt os • Hvis du oplever nogen problemer, finder fejl eller har forslag. Copyright 2007 - 2018