Log ind         eller        Opret en gratis konto
 
  Tilbage

Musicmate.dk | 3 Doors Down - Here witout you Guitar Akkorder

3 Doors Down - Here witout you

Guitar Akkorder
         Slå akkorder op    Print sang  Se forfatter 


Riff 1
e|---------------------------------------------------------------------------|
B|-------1-----0-----0---1--------------2---------------0--------------------|
G|-----2---2-----2-----2---2----------3---3---------0-----0------------------|
D|---2-------2-----2---------2------3-------3-----0---0-----0----------------|
A|-0---------------------------0--1------------2-----------------------------|
E|---------------------------------------------3-----------------------------|

Riff 2
e|---------------------------------------------------------------------------|
B|-------1-----0-----0---1--------------0-----1-----0-----1/3----------------|
G|-----2---2-----2-----2---2----------0----0-----0-----0---------------------|
D|---2-------2-----2---------2------0----------------------------------------|
A|-0---------------------------0---------------------------------------------|
E|--------------------------------3------------------------------------------|

        Am                              G                                    
A hundred days have made me older Since the last time that I saw your 
Am   F G
pretty face,
   Am    G
A thousand lies have made me colder, And I don't think I can look at this the same
Am             G
An all the miles that separate,
Am     F      G
They Disappear now when I'm dreamin' of your face 
      
CHORUS
C    G  Am
I'm here without you baby, But you're still on my lonely mind 
       F    G      C
I think about you baby and I dream about you all the time
   G       Am
I'm here without you baby, But you're still with me in my dreams,
      F      G   Am   G Am F G
And tonight, there's only you and me  yeah.

Am     G Am  F  G
The miles just keep rollin', As the people leave their way to say hello
Am  G Am
I've heard this life is overrated, But I hope that it gets better as we go 
F   G
hooh yeah yeah.


CHORUS

Am     C       G
Everything I know, and anywhere I go 
  F    
It gets hard but it won't take away my love, 
Am      C           G
And when the last one falls, when it's all said and done.
  F C  G Am  F G
It gets hard but it won't take, away, my love, woah oh Woah    wo-oh



Kommentar


:)
  Oprettet d. 31. august, 2017 kl. 09.19 
bjarkeh    


:)
  Oprettet d. 16. december, 2013 kl. 12.22 
mand    

Log ind eller opret en bruger, for at skrive en kommentar


Kontakt os • Hvis du oplever nogen problemer, finder fejl eller har forslag. Copyright 2007 - 2018