Log ind         eller        Opret en gratis konto
 
  Tilbage

Musicmate.dk | Josh Turner - Your Man Guitar Akkorder

Josh Turner - Your Man

Guitar Akkorder
         Slå akkorder op    Print sang  Se forfatter 


[intro]

E|---------------------9--------|--------------------------|
B|----------------9/11---b7---7-|---7-9-b7-----------------|
G|-------6-6/8-11-----------8---|-8--------b8----6/8\6---6-|
D|---6/8------------------------|-------------8--------8---|
A|-9----------------------------|--------------------------|
E|------------------------------|--------------------------|

E|------------------------------|-9-11-9--------------------------------|
B|---7--7/9-b9-7-b9-7--9-b9-7-6-|--------b9-b9-7-9-9-7------------------|
G|-6--8-------------------------|-----------------------6/8\6-----------|
D|------------------------------|-----------------------------6/8\6-----|
A|------------------------------|-----------------------------------9---|
E|------------------------------|---------------------------------------|

C G D G



[Verse 1]

(No Chords)                     C
Baby lock the door and turn the lights down low
C                       G
Put some music on thats soft and slow
G                    D
Baby we ain't got no place to go
                G (Stop)
I hope you understand
(No Chords)                  C
I've been thinking bout this all day long
C                    G
Never felt a feeling quite this strong
G                           D
I can't believe how much it turns me on
D               G
Just to be your man
Am             C
Theres no hurry,don't you worry
D
we can take our time
Am                   Bm
Come a little closer,lets go over
D             G (Stop)
What I had in mind
(No Chords)                     C
Baby lock the door and turn the lights down low
C                      G                      
Put some music on that soft and slow
G                    D
Baby we ain't got no place to go
D              G     (Stop)
I hope you understand
(No Chords)                  C
I've been thinking buot this all day long
C                    G
Never felt a feeling quite this strong
G                           D
I can't believe how much it turns me on
D               G
Just to be your man


[Solo chords]

C G D C


[Verse 2]

Am           C
Ain't nobody, ever loved nobody
D
The way that I love you
Am             Bm     
We're alone now, you don't know how
D                G (Stop)
Long I've wanted to 
(No Chords)                     C
Baby lock the door and turn the lights down low
C                        G
Put some music on that's soft and slow
G                    D
Baby we ain't got no place to go
D              G (Stop)
I hope you understand
(No Chords)                  C
I've been thinking bout this all day long
C                             G
Never felt a feeling that was quite this strong
G                           D
I can't believe how much it turns me on
D            G
Just to your man
G                           D
I can't believe how much it turns me on
D               G
Just to be your man


[Solo Сhords]

C G D G 


************************************

| b  Bend
| /  Slide up
| \  Slide down

************************************

Kommentar

Log ind eller opret en bruger, for at skrive en kommentar


Kontakt os • Hvis du oplever nogen problemer, finder fejl eller har forslag. Copyright 2007 - 2018