Log ind         eller        Opret en gratis konto
 
  Tilbage

Musicmate.dk | Terra Naomi - Say Its Possible Guitar Tabs/Fingerspil

Terra Naomi - Say Its Possible

Guitar Tabs/Fingerspil
         Slå akkorder op    Print sang  Se forfatter 



x2 
E----------3-3------3-3-------3-3--------| 
B----------3-3------3-3-------3-3--------| 
G----------0-0------0-0-------0-0--------| 
D----2-2--------2-2------0-0-------0-0_0-| 
A----2-2--------3-3------2-2-------0-0-0-| 
E----0-0--------0-0------3-3-------2-3-2-| 
 
Verse 
E----------3-3------3-3-------3-3-------3-3---| 
B----------3-3------3-3-------3-3-------3-3---| 
G----------0-0------0-0-------0-0-------0-0---| 
D----2-2--------2-2------0-0-------0-0--------| 
A----2-2--------3-3------2-2-------0-0--------| 
E----0-0--------0-0------3-3-------2-2--------| 
 
 
Chorus same chords dif paterns. 
E----------3-3------3-3-------3-3-------3-3---| 
B----------3-3------3-3-------3-3-------3-3---| 
G----------0-0------0-0-------0-0-------0-0---| 
D----2-2--------2-2------0-0-------0-0--------| 
A----2-2--------3-3------2-2-------0-0--------| 
E----0-0--------0-0------3-3-------2-2--------| 
 
Bridge         I'm not alright.......... 
E-----------3-------3--------3--------3----| 
B-----------3-------3--------3--------3----| 
G-----------0-------0--------0--------0----| 
D-----------2-------0--------0--------0----| 
A-----------3-------0--------2--------2----| 
E-----------0-------2--------2--------3----| 

Kommentar

Log ind eller opret en bruger, for at skrive en kommentar


Kontakt os • Hvis du oplever nogen problemer, finder fejl eller har forslag. Copyright 2007 - 2018