Log ind         eller        Opret en gratis konto
 
  Tilbage

Musicmate.dk | Dizzy Mizz Lizzy - Wishing Well Guitar Tabs/Fingerspil

Dizzy Mizz Lizzy - Wishing Well

Guitar Tabs/Fingerspil
         Slå akkorder op    Print sang  Se forfatter 


Intro: x2

D|----------------------------------------------------------------------|
A|----------------------------------------------------------------------|
F|--11---7--7-7-7---12--12-12-12--7-9--7/11--7--5----5---5---5--4-5-4---|
C|----------------------------------------------------------------------|
G|--9----5--5-5-5---10--10-10-10--5-7--5/9---5--3----3---3---3--2-3-2---|
D|----------------------------------------------------------------------|

Vers:


D|----------------------------------------------------------------------|
A|----------------------------------------------------------------------|
F|--11---7--7-7-7---12--12-12-12--7-9--7/11--7--5----5---5---5--4-5-4---|
C|----------------------------------------------------------------------| x2
G|--9----5--5-5-5---10--10-10-10--5-7--5/9---5--3----3---3---3--2-3-2---|
D|----------------------------------------------------------------------|

D|-------------------------------------------------------------------------|
A|-------------------------------------------------------------------------|
F|--4---4h5-4---8---8--8--8----11---7--7-7-7---12--12-12-12---7--7--7------|
C|--5---5---5---7---7--7--7------------------------------------------------|
G|-----------------------------9----5--5-5-5---10--10-10-10---5--5--5------|
D|-------------------------------------------------------------------------|

D|------------------------------------------------------------------------------|
A|------------------------------------------------------------------------------|
F|--4---4h5-4---8---8--8--8------8-----8-------7-----7----5---------------------|
C|--5---5---5---7---7--7--7------7-----7-------7-----7----5---------------------|
G|------------------------------------------------------------------------------|
D|----------------------------8-------------7-------------5---5--5--5--5--5--5--|

D|----------------------------|
A|----------------------------|
F|----------------------------|
C|----------------------------|
G|------------3-5--3-5--3-5---|
D|--3-5--3-5------------------|

Chorus:


D|----------------------------------------------------------------|
A|----------------------------------------------------------------|
F|--11---7--7-7-7---12--12-12-12--7-9--7/11--7--7--7---5---5-4-5--|
C|----------------------------------------------------------------|
G|--9----5--5-5-5---10--10-10-10--5-7--5/9---5--5--5---3---3-2-3--|
D|----------------------------------------------------------------|

D|------------------------------------------------------------------------------|
A|------------------------------------------------------------------------------|
F|--5---------5---------5---5-----3---------3---------3----3--3-----------------|
C|--4- break -4- break -4---4-----2- break -2- break -2----2--2- let it ring ---|
G|--5---------5---------5---5-----3---------3---------3----3--3-----------------|
D|------------------------------------------------------------------------------|

Bridge:


D|--------------------------------------------------------------------------------------|
A|--------------------------------------------------------------------------------------|
F|--------------------------------------------------------------------------------------|
C|------10--10------------8---------------8---------------8------10--x--x--10---8-------|
G|--8-----------7--8--10-----x--x--9--10-----x--x--9--10----------------------------10--|
D|------------------------------------------------------------8-------------------------|

D|---------------------------------------|
A|---------------------------------------|
F|--10h8------8--------------------------|
C|--------10-----10h8------8-------------| x2 including the first bar
G|---------------------10-----10\8-6-8---|
D|---------------------------------------|

D|------------------------------------------------------------------------------------|
A|------------------------------------------------------------------------------------|
F|------------------------------------------------------------------------------------|
C|------11--11------------9---------------9---------------9------11--x--x--11---9-----|
G|--9-----------8--9--11-----x--x--10-11-----x--x--10-11--------------------------11--|
D|------------------------------------------------------------9-----------------------|

D|---------------------------------------|
A|---------------------------------------|
F|--11h9------9--------------------------|
C|--------11-----11h9------9-------------| x2 including the first bar
G|---------------------11-----11\9-7-9---|
D|---------------------------------------|

D|-----------|
A|-----------|
F|-----------|
C|-----------|
G|-----------|
D|--9~~~~~~--|

Intro: x2


D|----------------------------------------------------------------------|
A|----------------------------------------------------------------------|
F|--11---7--7-7-7---12--12-12-12--7-9--7/11--7--5----5---5---5--4-5-4---|
C|----------------------------------------------------------------------|
G|--9----5--5-5-5---10--10-10-10--5-7--5/9---5--3----3---3---3--2-3-2---|
D|----------------------------------------------------------------------|


Vers:

D|----------------------------------------------------------------------|
A|----------------------------------------------------------------------|
F|--11---7--7-7-7---12--12-12-12--7-9--7/11--7--5----5---5---5--4-5-4---|
C|----------------------------------------------------------------------| x2
G|--9----5--5-5-5---10--10-10-10--5-7--5/9---5--3----3---3---3--2-3-2---|
D|----------------------------------------------------------------------|

D|-------------------------------------------------------------------------|
A|-------------------------------------------------------------------------|
F|--4---4h5-4---8---8--8--8----11---7--7-7-7---12--12-12-12---7--7--7------|
C|--5---5---5---7---7--7--7------------------------------------------------|
G|-----------------------------9----5--5-5-5---10--10-10-10---5--5--5------|
D|-------------------------------------------------------------------------|

D|------------------------------------------------------------------------------|
A|------------------------------------------------------------------------------|
F|--4---4h5-4---8---8--8--8------8-----8-------7-----7----5---------------------|
C|--5---5---5---7---7--7--7------7-----7-------7-----7----5---------------------|
G|------------------------------------------------------------------------------|
D|----------------------------8-------------7-------------5---5--5--5--5--5--5--|

D|----------------------------|
A|----------------------------|
F|----------------------------|
C|----------------------------|
G|------------3-5--3-5--3-5---|
D|--3-5--3-5------------------|


Chorus:

D|----------------------------------------------------------------|
A|----------------------------------------------------------------|
F|--11---7--7-7-7---12--12-12-12--7-9--7/11--7--7--7---5---5-4-5--|
C|----------------------------------------------------------------|
G|--9----5--5-5-5---10--10-10-10--5-7--5/9---5--5--5---3---3-2-3--|
D|----------------------------------------------------------------|


Solo: with wah-pedal

D|-----------------------------------------------------------------------|
A|--13-15- x11 ----------------------------------------------------------|
F|--------------------------------10------10--12--12---12--12---12-------|
C|---------------10-12- x13 ----------12---------------------------------|
G|-----------------------------------------------------------------------|
D|-----------------------------------------------------------------------|

D|-----------------------------------------------------------------10---|
A|--------------------------------------------------------------10------|
F|--10--12---10h12---12-10--12-10-------9---10----11---12---12----------|
C|---------------------------------12-----------------------------------|
G|----------------------------------------------------------------------|
D|----------------------------------------------------------------------|

D|-----------------------------------------------------------------------------------------|
A|---------------------------------------10-13-------------------------------------10-13---|
F|----------10--12-12-12--10h12---12-12--------12-12--10--------------------10-12----------|
C|--0b--12-----------------------------------------------------------10-12-----------------|
G|----------------------------------------------------------------8------------------------|
D|---------------------------------------------------------10--8---------------------------|

D|--10------10--13-----13--10------------x--x-------17---17--16--15-----15-------------|
A|------13---------------------13- x8 -------------------------------18-----18h15~-----|
F|-------------------------------------------------------------------------------------|
C|----------------------------------------------x--------------------------------------|
G|-------------------------------------------------------------------------------------|
D|-------------------------------------------------------------------------------------|

D|----------------------------------|
A|--15---18--18~~~---15---18—18~~~--|
F|--0----------------0--------------|
C|----------------------------------|
G|----------------------------------|
D|----------------------------------|

Bridge:


D|------------------------------------------------------------------------------|
A|------------------------------------------------------------------------------|
F|--5---------5---------5---5-----3---------3---------3----3--3-----------------|
C|--4- break -4- break -4---4-----2- break -2- break -2----2--2- let it ring ---|
G|--5---------5---------5---5-----3---------3---------3----3--3-----------------|
D|------------------------------------------------------------------------------|

D|--------------------------------------------------------------------------------------|
A|--------------------------------------------------------------------------------------|
F|--------------------------------------------------------------------------------------|
C|------10--10------------8---------------8---------------8------10--x--x--10---8-------|
G|--8-----------7--8--10-----x--x--9--10-----x--x--9--10----------------------------10--|
D|------------------------------------------------------------8-------------------------|

D|---------------------------------------|
A|---------------------------------------|
F|--10h8------8--------------------------|
C|--------10-----10h8------8-------------| x2 including the first bar
G|---------------------10-----10\8-6-8---|
D|---------------------------------------|

D|------------------------------------------------------------------------------------|
A|------------------------------------------------------------------------------------|
F|------------------------------------------------------------------------------------|
C|------11--11------------9---------------9---------------9------11--x--x--11---9-----|
G|--9-----------8--9--11-----x--x--10-11-----x--x--10-11--------------------------11--|
D|------------------------------------------------------------9-----------------------|

D|---------------------------------------|
A|---------------------------------------|
F|--11h9------9--------------------------|
C|--------11-----11h9------9-------------| x2 including the first bar
G|---------------------11-----11\9-7-9---|
D|---------------------------------------|

D|------------------------|
A|------------------------|
F|--------------11~~~~~---|
C|------------------------|
G|------------------------|
D|--9~~~~~~---------------|

Outro: 


D|---------------------------------------------------------------------------------|
A|---------------------------------------------------------------------------------|
F|--11--7--7-7-7----12--7--7-7-7----14--7--7-7-7----16--7--7-7-7----17--7--7-7-7---|
C|---------------------------------------------------------------------------------|
G|--9---5--5-5-5----10--5--5-5-5----12--5--5-5-5----14--5--5-5-5----15--5--5-5-5---|
D|---------------------------------------------------------------------------------|

D|---------------------------------------------------------------------------|
A|---------------------------------------------------------------------------|
F|--15--7--7-7-7----17--7--7-7-7----19--7--7-7-7----7------------------------|
C|---------------------------------------------------------------------------|
G|--12--5--5-5-5----14--5--5-5-5----16--5--5-5-5----5--5--5--5--5--5--5--5---|
D|---------------------------------------------------------------------------|

D|----------------------------------------------------------------------------|
A|----------------------------------------------------------------------------|
F|---------------------------2--2--2--2--2--2--2--2--2--2--2--2--2--2--2--2---|
C|--4--4--4--4--4--4--4--4---4--4--4--4--4--4--4--4--4--4--4--4--4--4--4--4---|
G|--5--5--5--5--5--5--5--5---5--5--5--5--5--5--5--5--5--5--5--5--5--5--5--5---|
D|----------------------------------------------------------------------------|

D|----------------------------|
A|----------------------------|
F|----------------------------|
C|----------------------------|
G|------------3-5--3-5--3---5-|
D|--3-5--3-5------------------|

Kommentar

Log ind eller opret en bruger, for at skrive en kommentar


Kontakt os • Hvis du oplever nogen problemer, finder fejl eller har forslag. Copyright 2007 - 2018