Log ind         eller        Opret en gratis konto
 
  Tilbage

Musicmate.dk | Dizzy Mizz Lizzy - 67 Seas In Your Eyes Guitar Tabs/Fingerspil

Dizzy Mizz Lizzy - 67 Seas In Your Eyes

Guitar Tabs/Fingerspil
         Slå akkorder op    Print sang  Se forfatter 


       Tema 1                                                                  
D---||--------------------------|----------------|------------------------------
A---||--------------------------|----------------|------------------------------
F---||--------------------------|----------------|------------------------------
C---||------------------7-------|----------------|------------------------------
G---||----5--5--5---/9---/9-----|-----------(9)--|------------------------------
D---||/7-----------7------------|----------------|------------------------------
                                                                                

                                                                                
D----------------------------------------------------------------------||-------
A----------------------------------------------------------------------||-------
F----------------------------------------------------------------------||-------
C----------------------7-----------------------------------------------||-------
G--------5--5--5---/9-----9--8--------(8)-----8--7-----(7)--------7----||-------
D----/7-----------7----------------------------------------------------||-------
                                                                                

    Tema 2                                                                      
D-------------------------------------------------------------------------------
A-------------------------------------------------------------------------------
F-------------------------------------------------------------------------------
C-------------------------------------------------------------------------------
G------------5--------p--p--5-------------5-----------p--p--5-----3--3--5-------
D------0--0-----------0--0---------/7--7--------------7--7----------------------
                                                                                

                                                                                
D-------------------------------------------------------------------------------
A-------------------------------------------------------------------------------
F-------------------------------------------------------------------------------
C------p--p-----------------------p--p------------------------------------------
G------3--3--5-----0--0--5--------0--0--5--3-----2-----5--------p--p--5---------
D---------------------------------------------------0-----------0--0------------
                                                                                

                                                                                
D-------------------------------------------------------------------------------
A-------------------------------------------------------------------------------
F-------------------------------------------------------------------------------
C-----------------------------------------------p--p-----------------------p----
G-----------5--------p--p--5-----3--3--5--------3--3--5-----0--0--5--------0----
D----/7--7-----------7--7-------------------------------------------------------
                                                                                

                                                               Vers-riff 1      
D----------------------------------------------------------||--------------|----
A----------------------------------------------------------||--8-----------|----
F----------------------------------------------------------||--7-----------|----
C---p------------------------------------------------------||--5-----------|----
G---0--5--3--------p--7-----------p--4------h5p4--p-----p--||--------------|----
D------------------0--------------7---------------7-----5--||--------------|----
                                                                                

                                                                                
D------------------|-----------|-----------------||-----------------------------
A---------8--------|--------8--|-----------8-----||-----------------------------
F---------6--------|--------5--|-----------6-----||-----------------------------
C---------5--------|--------5--|-----------5-----||-----------------------------
G------------------|-----------|-----------------||-----------------------------
D------------------|-----------|-----------------||-----------------------------
                                                                                

    Vers-riff 2                                                                 
D-------------------------------------------------------------------------------
A---------8-----------8-----------8-----------8-----------8-----------8---------
F------7-----7-----7-----7-----6-----6-----6-----6-----5-----5-----6-----6------
C---5-----------5-----------5-----------5-----------5-----------5---------------
G-------------------------------------------------------------------------------
D-------------------------------------------------------------------------------
                                                                                

                                                                                
D-------------------------------------------------------------------------------
A---------8--------------8-----------8-----------8-----------8-----------8------
F------6-----6--------7-----7-----7-----7-----6-----6-----6-----6-----5---------
C---5--------------5-----------5-----------5-----------5-----------5------------
G-------------------------------------------------------------------------------
D-------------------------------------------------------------------------------
                                                                                

                                                                                
D-----------------------||------------------------------------------------------
A------------8-----8----||------------------------------------------------------
F---5-----6-----6--6----||------------------------------------------------------
C------5-----------5----||------------------------------------------------------
G---------------------x\||------------------------------------------------------
D-----------------------||------------------------------------------------------
                                                                                

    Chorus                                                                      
D-------------------------------------------------------------------------------
A-------------------------------------------------------------------------------
F-------------------------------------------------------------------------------
C---5-----------4--5--4-----------------2--------4--5--4-----------------5------
G---3-----------3--3--3-----------x-----3--------3--3--3-----------x-----5------
D-------------------------------------------------------------------------------
   She_________Doesn't know____________Which____way to go_______________She_____ 
                                                                                
D-------------------------------------------------------------------------------
A-------------------------------------------------------------------------------
F-------------------------------------------------------------------------------
C---------4--5--4-------------------------------------------------5-------------
G---------5--5--5-----------------------------7\------------------3-------------
D-------------------------------------------------------------------------------
_______Doesn't care-break-                                   But 
                                                                                
D-------------------------------------------------------------------------------
A-------------------------------------------------------------------------------
F-------------------------------------------------------------------------------
C---4--5--4--------------5--------4--5--4--------------x--x-----5--------4------
G---3--3--3-----------x--5--------5--5--5--------------x--x-----2--------2------
D-------------------------------------------------------------------------------
   Before you go       You_______oughto know___________________Six______ty 
      
D------------------------------------------------||-----------------------------
A------------------------------------------------||-----------------------------
F------------------/-----/-----/--/--------------||-----------------------------
C---4--4--4--4--4--4--4--4--4--4--4--4-----------||-----------------------------
G---2--2--2--2--2--2--2--2--2--2--2--2-----------||-----------------------------
D------------------------------------------------||-----------------------------
    Seven____________seas in your____(eyes)               
              |  / over akkorden= mute                                        

    Solo backing                                2x                              
D-----------------------------------------------||------------------------------
A-----------------------------------------------||------------------------------
F----------------------------------------------*||------------------------------
C----------------------------------------------*||------------------------------
G------p--7-----------p--4------h5p4--p-----p---||------------------------------
D------0--------------7---------------7-----5---||------------------------------
                                                                                

                                             2x                                 
D--------------------------------------------||--||-----------------------------
A--------------------------------------------||--||-----------------------------
F-------------------------------------------*||--||-----------------------------
C-------------------------------------------*||--||-----------------------------
G---p--7-----------p--4------h5p4--p-----p---||--||-----------------------------
D---3--------------7---------------7-----5---||--||-----------------------------
                                                                                

    Wah wah solo                                                                
D-------------------------------------------------------------------------------
A---15^-----------------15---15--------s----------------------------------------
F---14------------------14^--14^--14^--14--14p12-----14^---------12-------------
C---------------------------------------------------------14--------------------
G-------------------------------------------------------------------------------
D-------------------------------------------------------------------------------
                                  Pick 1st note only--|                      

                e^  e^  e^   e^  e^  e^     e^ e^  e^                           
D-------------------12----------------------------------------------------------
A-------t-------12------15^--15--12---------------------------------------------
F---14--14^--------------------------15-----14p12---------14------12------------
C--------------------------------------------------14---------14------14--------
G-------------------------------------------------------------------------------
D-------------------------------------------------------------------------------
                                                                                

                                                                                
D-------------------------------------------------------------------------------
A-------------------------------------------------------------------------------
F-------------------------------------------------------------------------------
C---12----------------------t----s-------------------------------12--12---------
G-------14--12--10--12--12--12^--12p10-----------------10---/14-----------------
D---------------------------------------12~~~\----------------------------------
                                                                                

                                                          t               s     
D----------------------------------------------12-----15--15^------^------15----
A--------------------------15--15--15--15--15-----------------------------------
F--------12--12-----14/16---------------------------------------------15--------
C---/14-------------------------------------------------------------------------
G-------------------------------------------------------------------------------
D-------------------------------------------------------------------------------
                                                              hold bend         

           e^  e^  e^  e^  e^  e^  e^  e^  e^  e^  e^  e^                       
D---12-----15--15--12------15--12------15--12------15--12--15^--15~~~-----------
A----------------------15----------15----------15-------------------------------
F-------------------------------------------------------------------------0-----
C-------------------------------------------------------------------------------
G-------------------------------------------------------------------------------
D-------------------------------------------------------------------------------
                                                                                

        t                                                            t          
D---19--19^--19--18--17----------17------t-----------------------19--19^--19----
A------------------------20--20------20--20^--17~~~-----------------------------
F-------------------------------------------------------------0-----------------
C-------------------------------------------------------------------------------
G-------------------------------------------------------------------------------
D-------------------------------------------------------------------------------
                                                                                

                                                     t                          
D---18--17----------17------t-----------------15-----15^--15--12------12--------
A-----------20--20------20--20^--17~~~----------------------------15------15----
F------------------------------------------0------------------------------------
C-------------------------------------------------------------------------------
G-------------------------------------------------------------------------------
D-------------------------------------------------------------------------------
                                                                                

                                                                                
D---t---------------------------------------------------------------------------
A---15^--15--12------12-----------------------------------------12--15----------
F----------------15------15--14--12------14------12--------14^----------14------
C------------------------------------14------14---------------------------------
G-------------------------------------------------------------------------------
D-------------------------------------------------------------------------------
                                                                                

                                                                                
D-------------------------------------------------------------------------------
A-----------------------------------t---------------------------------t---------
F---14^--------14--12-----------14--14^-----14--14--14--14--------14--14^-------
C-------------------------------------------------------------------------------
G-------------------------------------------------------------------------------
D-------------------------------------------------------------------------------
               1/2                          1/2---          |                   

                                                                                
D-------------------------------------------------------------------------------
A------------------------t------------------------------t-----------------------
F---14--12-----------14--14^--14--14--14--14--------14--14^--14--12-------------
C-------------------------------------------------------------------------------
G-------------------------------------------------------------------------------
D-------------------------------------------------------------------------------
    1/2                       1/2---          |              1/2                

                                                                                
D-------------------------t----s------------------------------------------------
A---12--15--12--------15--15^--15p12------------12------------------------------
F-------------------------------------------15------15--14--12------14----------
C---------------------------------------------------------------14------14------
G-------------------------------------------------------------------------------
D-------------------------------------------------------------------------------
                      phrase--------  |                                         

                                                    fill 1                      
D--------------------------------------------||----------------------|----------
A--------------------------------------------||----------------------|----------
F---12--------14--------14^-----------14~~~--||-----12~~~~~~-----11--|----------
C--------------------------------------------||----------------------|----------
G--------------------------------------------||----------------------|----------
D--------------------------------------------||----------------------|----------
                                                                                

                       Tema 3                                                   
D------------------||--------------------------------------------------|--------
A------------------||----------------------------t----s--s-------------|--------
F------(11)~~~~~~--||--14^--------14^--------14--14^--14p12------------|--------
C------------------||-------------------------------------------13-----|--------
G------------------||--------------------------------------------------|--------
D------------------||--------------------------------------------------|--------
                                                                                

                                                                                
D-----------------|-------------------------------------------------------------
A-----------------|-------------------------------------------------------------
F-----------------|-------------------------------------------------------------
C---------(13)~~~\|-------------------------------------------------------------
G-----------------|-------------------------------------------------------------
D-----------------|-------------------------------------------------------------
                                                                                

                                                                                
D-------------------------------------------------------------------------------
A------------------------t-------s----------------------------------------------
F----------12-----14-----14^-----14---p12-------------------------12------------
C------12-------------------------------------12-----11---------------11--------
G-------------------------------------------------------------------------------
D-------------------------------------------------------------------------------
                  phrase                   |                                    

                                                                                
D----------------------------------------------------------------|--------------
A------------------------------------------t----s--s-------------|--------------
F----------------14^--------14^--------14--14^--14p12------------|--------------
C---10----------------------------------------------------13-----|--------------
G----------------------------------------------------------------|--------------
D----------------------------------------------------------------|--------------
                                       phrase          |                        

                                                                                
D-----------------|-------------------------------------------------------------
A-----------------|-------------------------------------------------------------
F-----------------|-------------------------------------------------------------
C---------(13)~~~\|-------------------------------------------------------------
G-----------------|-------------------------------------------------------------
D-----------------|-------------------------------------------------------------
                                                                                

                                                                                
D-------------------------------------------------------------------------------
A------------------------t-------s----------------------------------------------
F----------12-----14-----14^-----14---p12-------------------------13------------
C------12-------------------------------------12-----11---------------11--------
G-------------------------------------------------------------------------------
D-------------------------------------------------------------------------------
                  phrase                   |                                    

                                                                                
D-----------------------------------------------------------------------|-------
A--------------------t----12-----15-----12------------------------------|-------
F-------------14-----14^-----------------------14^-----12---------------|-------
C---10--------------------------------------------------------13--------|-------
G-----------------------------------------------------------------------|-------
D-----------------------------------------------------------------------|-------
                                                                                

                                                                                
D-----------|-------------------------------------------------------------------
A-----------|-------------------------------------------------------------------
F-----------|-------------------------------------------------------------------
C---(13)~~~\|-------------------------------------------------------------------
G-----------|-------------------------------------------------------------------
D-----------|-------------------------------------------------------------------
                                                                                

                                                                                
D-------------------------------------------------------------------------------
A---------------------------t-------s-------------------------------------------
F-------------12-----14-----14^-----14---p12-------------------------12---------
C---------12-------------------------------------12-----11---------------11-----
G-------------------------------------------------------------------------------
D-------------------------------------------------------------------------------
                                                                                

                                                                                
D------------------------------------------------||-----------------------------
A------------------------------------------------||-----------------------------
F-------------12---------------------------------||-----------------------------
C------10------------10\------7/9--------(9)-----||-----------------------------
G------------------------------------------------||-----------------------------
D------------------------------------------------||-----------------------------
                                                                                

    Tema backing                                                                
D-------------------------------|----------------------|------------------------
A-------------------------------|----------------------|------------------------
F-------------------------------|----------------------|------------------------
C-------------------------------|----------------------|------------------------
G--------------------5----------|----------------------|------------------------
D---3--3--3--0---/7---/7--------|--(7)--------------0--|------------------------
                                                                                

                                                                                
D--------------------------------------------------------------||---------------
A--------------------------------------------------------------||---------------
F--------------------------------------------------------------||---------------
C--------------------------------------------------------------||---------------
G-----------------------5--------------------------------------||---------------
D------3--3--3--0---/7-----7--6--------6--5--------------5--0--||---------------
                                                                                

       fill 1a                                                                  
D------------------------------------||-----------------------------------------
A------------------------------------||-----------------------------------------
F------------------------------------||-----------------------------------------
C------------------------------------||-----------------------------------------
G------------------------------------||-----------------------------------------
D------3--------------------2--------||-----------------------------------------
                                                                                

    Outro lead                                                                  
D-------------------------------------------------------------------------------
A-------------------------------------------------------------------------------
F---------------------------------------p--p------------------------------------
C---------5-----------------5-----------4--4--4--------p--p--4--------p--p------
G---2--------------p--p--------------------------------2--2-----------3--3------
D------0-----------0--0---------------------------------------------------------
                                                                                

                                                                                
D-------------------------------------------------------------------------------
A-------------------------------------------------------------------------------
F---------------------------------------------p--p------------------------------
C---5--------p--p--5-----p--p-----------p--p--5--7---/9-----------5-------------
G------------3--3--------0--0--5--------0--0----------------p--------------p----
D-----------------------------------------------------------0--------------0----
                                                                                

                                                                                
D-------------------------------------------------------------------------------
A-------------------------------------------------------------------------------
F-------------------------------------------------------------------------------
C------5-----p--p--4--------p--p--4-----p--p--5--------p--p--5--p--p--5---------
G---p--------2--2-----------2--2--------3--3-----------3--3-----0--0------------
D---0---------------------------------------------------------------------------
                                                                                

                                                                                
D----------------------------------------------------------------------|--------
A----------------------------------------------------------------------|--------
F----------------------------------------------------------------------|--------
C------p--p--5--7------------------------------------------------------|--------
G------0--0--------------p--7-----------------4---h5p4-----p-----p-----|--------
D------------------------0--------------7------------------7-----5-----|--------
                                                                                

                                                                                
D------||-----------------------------------------------------------------------
A------||-----------------------------------------------------------------------
F------||-----------------------------------------------------------------------
C---9--||-----------------------------------------------------------------------
G---7--||-----------------------------------------------------------------------
D---0--||-----------------------------------------------------------------------
    Let ring                                                                    



================================================================================
==                           TABLATURE EXPLANATION                            ==
================================================================================

----------                ----------                ----t---
----5h8--- Hammeron       ----(8)--- Ghost          ----6--- Tied
----------                ---------- Note           --------
----5p8--- Pulloff        ----------                --------

----------                ----------                -----p--
----5/8--- Slide Up       -----x---- Dead           -----7-- Palm mute
----------                ---------- Note           --s-----
----5\8--- Slide Down     ----------                --5----- Release bend 

----------                ||------|| Repeat         --------
----5~~~-- Vibrato        ||*----*||                ---5^--- Bend
----------                ||*----*||                --------
----------                ||------||                --------

----------                ----------                --------
-4:------- Time           ----------                --------
-4:------- Signature      ----------                --------
----------                ----------                --------

Rhythm:
  w = whole note            W = dotted whole
  h = half note             H = dotted half
  q = quarter note          Q = dotted quarter
  e = eighth note           E = dotted eighth
  s = sixteenth note        S = dotted sixteenth
  t = 32nd note             T = dotted 32nd
  x = 64th note             X = dotted 64th
  ^ = triplet

Phrase/pick only first note: Pick note once (legato)

Form:

INTRO:
4xTema 1
1xTema 2
VERS:
2xVers-riff 1
1xVers-riff 2
CHORUS:
1xchorus
1xTema 2
VERS...
CHORUS...
1xTema 2, gå videre uden sidste takt
2x Solo backing 
Wah wah solo M/ Solo backing.
2x Tema 1 (M/ fill 1, Solo backing slutter med Fill 1a)
1x Tema 3 (M/ temabacking)
1x Tema 1
1x Temabacking
4x Tema 2 (3. gang spilles Outro Lead oveni)
SLUT


Kommentar

Log ind eller opret en bruger, for at skrive en kommentar


Kontakt os • Hvis du oplever nogen problemer, finder fejl eller har forslag. Copyright 2007 - 2018