Log ind         eller        Opret en gratis konto
 
  Tilbage

Musicmate.dk | Dizzy Mizz Lizzy - Glory Guitar Akkorder

Dizzy Mizz Lizzy - Glory

Guitar Akkorder
         Slå akkorder op    Print sang  Se forfatter 


Vers:

| Bbm - C# | D# - F |             x 4
| Bbm | C# | D# | F | F |      x 1
| Bbm - C# | D# - F |             x 4
| Bbm | C# | D# | F | F |      x 1


Intro & Omkvæd:

| F# | G# | Bbm | G# |
| F# | F | Bbm - F - C# - Bbm |
| F# | G# | Bbm | G# |
| F# | F | Bbm - F - C# - Bbm |


Intro:

|-----------------------|-----------------------|--------------------------|
|--------6-----------4--|--------7-----------6--|--------6-----------7-----|
|-----3-----3-----3-----|-----5-----5-----5-----|-----6-----6-----6-----6--|
|--4-----------4--------|--6-----------6--------|--8-----------8-----------|
|-----------------------|-----------------------|--------------------------|
|-----------------------|-----------------------|--------------------------|

|-----------------------|-----------------------|-----------------------|
|--------9-----------9--|--------6-----------4--|--------4-----------2--|
|-----6-----6-----6-----|-----3-----3-----3-----|-----2-----2-----2-----|
|--8-----------8--------|--4-----------4--------|--3-----------3--------|
|-----------------------|-----------------------|-----------------------|
|-----------------------|-----------------------|-----------------------|
                            
|---------------------------|
|---------------------------|
|------(2)--3-3-------------|
|-(3)-----------3-3---------| x 2
|-------------------4-4-----|
|-----------------------6---|

|--------------|
|--------------|
|--------3--5--|
|------3-------|
|----4---------|
|--6-----------|

Solo:

|------------------------------------------------------------|
|------------------------------------------------------------|
|-------6~--------8b9-8---8p6--------------------------------|
|--8----------------------------8/---------------------------|
|-------------------------------------x--6--4--6--4----------|
|------------------------------------------------------------|

|---------------------------------------------------------------------------|
|---------------------------------------6---9-------------------6--7--------|
|-------6---------8b10-----------6---8b9------8b9-6------6--8b9------8b9-8--|
|--8------------------------8-------------------------8---------------------|
|---------------------------------------------------------------------------|
|---------------------------------------------------------------------------|

|------------------------------------------------------|
|------------------------------------------------------|
|--6--10--8--10--6--10--5--10-----10--8--10--6--10--5--|
|------------------------------8-----------------------|
|------------------------------------------------------|
|------------------------------------------------------|

|--------------------------------------------------------------------------|
|--------------------------------------------------------------------------|
|-----11--10--11--8--11--6--11--5-5--6--8--8b10b8-6----6-8b10b8-6----------|
|--8------------------------------------------------8-------------8--------|
|--------------------------------------------------------------------------|
|--------------------------------------------------------------------------|

|--------------------------------------------------------------------------|
|-------------------------6-9-6--------------------------------------------|
|---------------------6-8-------8-6--8-6-8--8b10b8-8b10b8-8b10b8--6---6~---|
|--------6-8------6-8-----------------------------------------------8------|
|---6-8--------------------------------------------------------------------|
|--------------------------------------------------------------------------|

|--------------------------------------------------------------------------|
|--------------------------------------------------------------------------|
|--------------------------------------------------------------------------|
|----------6---------------------------------------------------------------|
|--------------------------------------------------------------------------|
|--------------------------------------------------------------------------|

Kommentar

Log ind eller opret en bruger, for at skrive en kommentar


Kontakt os • Hvis du oplever nogen problemer, finder fejl eller har forslag. Copyright 2007 - 2018