Log ind         eller        Opret en gratis konto
 
  Tilbage

Musicmate.dk | AC/DC - Hells Bells Guitar Tabs/Fingerspil

AC/DC - Hells Bells

Guitar Tabs/Fingerspil
         Slå akkorder op    Print sang  Se forfatter 


E|-------------------------------------------------------------
H|-------------------------------------------------------------
G|------9-------7--------------5--------------7----------------
D|----------7----------7--------------5--------------7---------
A|--0----------------------0--------------0--------------0--0--
E|-------------------------------------------------------------

E|-------------------------------------------------------------
H|-------------------------------------------------------------
G|--9-------7--------------5--------------7--------------------
D|------7----------7--------------5-------------5-5------------
A|---------------------0--------------0---------3-2-0----------
E|-------------------------------------------------------------

E|-------------------------------------------------------------
H|-------------------------------------------------------------
G|------9-------7--------------5--------------7----------------
D|----------7----------7--------------5---------------7--------
A|--0----------------------0--------------0--------------0--0--
E|-------------------------------------------------------------

E|-------------------------------------------------------------
H|-------------------------------------------------------------
G|--9-------7--------------5--------------7--------------------
D|------7----------7--------------5-------------5-5------------
A|---------------------0--------------0---------3-2-0----------
E|-------------------------------------------------------------

Kommentar

Log ind eller opret en bruger, for at skrive en kommentar


Kontakt os • Hvis du oplever nogen problemer, finder fejl eller har forslag. Copyright 2007 - 2018