Log ind         eller        Opret en gratis konto
 
  Tilbage

Musicmate.dk | AC/DC - Boogie Man Guitar Tabs/Fingerspil

AC/DC - Boogie Man

Guitar Tabs/Fingerspil
         Slå akkorder op    Print sang  Se forfatter 


Intro:

|---------------|----------------|
|---------------|----------------|
|---------------|----------------|
|7-7--5-5--7-7--|-7-7--5-5--7-7--|
|0-0--0-0--0-0--|-0-0--0-0--0-0--|
|---------------|----------------|

|---------------|----------------|----------------|
|---------------|----------------|----------------|
|---------------|----------------|-7b9b7---5------|
|7-7--5-5--7-7--|-7-7--5-5--7-7--|------------7---|
|0-0--0-0--0-0--|-0-0--0-0--0-0--|----------------|
|---------------|----------------|----------------|

Vers:

|---------------|----------------|
|---------------|----------------|
|---------------|----------------|
|7-7--5-5--7-7--|-7-7--5-5--7-7--|
|0-0--0-0--0-0--|-0-0--0-0--0-0--|
|---------------|----------------|

|---------------|----------------|----------------|
|---------------|----------------|----------------|
|---------------|----------------|-7b9b7---5------|
|7-7--5-5--7-7--|-7-7--5-5--7-7--|------------7---|
|0-0--0-0--0-0--|-0-0--0-0--0-0--|----------------|
|---------------|----------------|----------------|

Omkvæd:

|------------------------|------------------|
|------------------------|-3-3--3-3-3-3-3-3-|
|------------------------|-2-2--2-2-2-2-2-2-|
|-2-2-2--2-2-2--2-2-2----|-0-0--0-0-0-0-0-0-|
|-2-2-2--2-2-2--2-2-2----|------------------|
|------------------------|------------------|

|---------------|----------------|---------------|----------------|
|---------------|----------------|---------------|----------------|
|---------------|----------------|---------------|----------------|
|7-7--5-5--7-7--|-7-7--5-5--7-7--|7-7--5-5--7-7--|-7-7--5-5--7-7--|
|0-0--0-0--0-0--|-0-0--0-0--0-0--|0-0--0-0--0-0--|-0-0--0-0--0-0--|
|---------------|----------------|---------------|----------------|


Kommentar

Log ind eller opret en bruger, for at skrive en kommentar


Kontakt os • Hvis du oplever nogen problemer, finder fejl eller har forslag. Copyright 2007 - 2018