Log ind         eller        Opret en gratis konto
 
  Tilbage

Musicmate.dk | AC/DC - Big Balls Guitar Akkorder

AC/DC - Big Balls

Guitar Akkorder
         Slå akkorder op    Print sang  Se forfatter 


Intro: 

  E      E D# D C   C D D# E     E D# D C    C D D# E     E D# D C  
|-------------------------------------------------------------------|
|-------------------------------------------------------------------|
|-------------------------------------------------------------------|
|--9------9-8-7-5----5-7-8-9----------------------------------------| x 3
|--7------7-6-5-3----3-5-6-7------Similarly-------------------------|
|-------------------------------------------------------------------|
             
  C   D   D    B B B B B
|-------------------------------------------------------------------|
|-------------------------------------------------------------------|
|---------------4-4-4-4-4.------------------------------------------|
|--5-/-7---7-\--4-4-4-4-4.------------------------------------------|
|--3-/-5---5-\--2-2-2-2-2.------------------------------------------|
|-------------------------------------------------------------------|
                       

Vers:

E                         C 
Well I'm upper-upper class high society,
E                         C 
Gods' gift to ballroom noteriety,
E                                    C 
And my ballrooms always filled - the event is never small,
D                                 B  B    B     B  B
The social pages say I've got the biggest balls of all.


Chorus


E                        C#m 
I've got big balls,      I've got big balls,
They're such big balls, they're dirty big balls,
And he's got big balls, and she's got big balls,

    C     C   C   D  D      A     A  A    B
But we've got the biggest - balls of them all.


Vers:

E                                 C
And my ballrooms always bouncing, and my ballrooms always full,
E                                 C
And everybody comes and comes again.
E                                    C
If your name is one the guest list - no one can take you higher,
D                       B  B  B     B  B
Everybody says I've got great balls of fire.

Omkvæd.

Vers:

E                                 C
Some balls are held for charity,  and some for fancy dress,
E                                    C
But when they're held for pleasure - they're the balls that I like best.
E                              C
My balls are always bouncing - from the left and to the right,
D                                          B  B    B  B  B
It's my belief that my big balls should be held every night.

Omkvæd

Kommentar

Log ind eller opret en bruger, for at skrive en kommentar


Kontakt os • Hvis du oplever nogen problemer, finder fejl eller har forslag. Copyright 2007 - 2018