Log ind         eller        Opret en gratis konto
 
  Tilbage

Musicmate.dk | AC/DC - TNT Guitar Tabs/Fingerspil

AC/DC - TNT

Guitar Tabs/Fingerspil
         Slå akkorder op    Print sang  Se forfatter 


Intro:
E:--------------------------------------------------------
B:--------------------------------------------------------
G:--------------------------------------------------------
D:-2------------------------------------------------------
A:-2------------------------------------------------------
E:-0------------------------------------------------------

Vers:
E:--------------------------------------------------------
B:--------------------------------------------------------
G:--------------------------------------------------------
D:-2-x-5-7-x-5-7-5----------------------------------------
A:-2-x-5-7-x-5-7-5----------------------------------------
E:-0-x-3-5-x-3-5-3----------------------------------------

Omkvæd:
E:--------------------------------------------------------
B:--------------------------------------------------------
G:--------------------------------------------------------
D:-7-5-2--------------------------------------------------
A:-7-5-2--------------------------------------------------
E:-5-3-0--------------------------------------------------

Solo:
E:------------3-2-0-----------------------------12--------
B:------------------3-2---0----------------15b~----15-12--
G:-2b(HOLD)r------------2---0-----0-----------------------
D:----------------------------4/5-------------------------
A:--------------------------------------------------------
E:----------------------------------/19\-0----------------

E:-----------------------------------12-------------12----
B:----12--------------------------12-12-15p12----------12-
G:-12h14-14-14p12-14----12----14b-------------14h16-------
E:-------------------14----14-----------------------------
B:--------------------------------------------------------
G:--------------------------------------------------------

E:--------------------17b~--------------------------------
B:-15b~---------------------------------------------------
G:--------------------------------------------------------
E:------14-12-14~-14\-------------------------------------
B:--------------------------------------------------------
G:--------------------------------------------------------

Outro:
E:--------------------------------------------------------
B:-5b-6b-7b--8b-----------------13b-14b-15b-16b-17b-18b---
G:-7b-8b-9b-10b-11b-12b-13b-14b-15b-16b-17b-18b-19b-20b---
D:--------------------------------------------------------
A:--------------------------------------------------------
E:--------------------------------------------------------

E:--------------------------------------------------------
B:-----20b-22b-22b~(FADE)---------------------------------
G:-22b----------------------------------------------------
D:--------------------------------------------------------
A:--------------------------------------------------------
E:--------------------------------------------------------

(Intro)

Verse 1:
See me ride out of the sunset/On your, colour TV screen
After all that I can get/If you know what I mean
Women to the left of me/Women to the right
Ain't got no gun/Ain't got no knife
Don't you start no fight

Omkvæd:
'Cause I'm TNT/I'm dynamite
TNT/And I'll win the fight
TNT/I'm a power load
TNT/Watch me explode

Vers 2:
I'm dirty, mean, I'm mighty and clean/I'm a wanted man
Public enemy number one/Understand?
So lock up your daughter/Lock up your wife
Lock up your back door/And run for your life
The man is back in town/Don't you mess me round

Omkvæd:
'Cause I'm TNT/I'm dynamite
TNT/And I'll win the fight
TNT/I'm a power load
TNT/Watch me explode

(Solo)

Omkvæd:
TNT/TNT/TNT/TNT
TNT/I'm dynamite
TNT/And I'll win the fight
TNT/I'm a power load
TNT/watch me explode

(Outro)

Kommentar

Log ind eller opret en bruger, for at skrive en kommentar


Kontakt os • Hvis du oplever nogen problemer, finder fejl eller har forslag. Copyright 2007 - 2018