Log ind         eller        Opret en gratis konto
 
  Tilbage

Musicmate.dk | Lustra - Scotty Doesnt Know(ver2) Guitar Tabs/Fingerspil

Lustra - Scotty Doesnt Know(ver2)

Guitar Tabs/Fingerspil
         Slå akkorder op    Print sang  Se forfatter 


intro x3
E----------------------------------------------------------------
B----------------------------------------------------------------
G----------------------------------------------------------------
D----55--44--55------55--44--55------55--44--55--77--55-44-55----
A--------------------------------33------------------------------
E-33-------------55----------------------------------------------



chorus
E------------------------------------------------
B------------------------------------------------
G------------------------------------------------
D--------------4--4--4--4--5--5--5--5--5--5--5--5
A--5--5--5--5--2--2--2--2--3--3--3--3--3--3--3--3
E--3--3--3--3------------------------------------


E------------------------------------------------
B------------------------------------------------
G------------------------------------------------
D--------------4--4--4--4--5--5--5--5--------7--7
A--5--5--5--5--2--2--2--2--3--3--3--3--7--7--5--5
E--3--3--3--3--------------------------5--5------

verse (palm muted)
E------------------------------------------------
B------------------------------------------------
G---------------------------------6--5--6--5-----
D----------------------5555-5555--5--5--5--5-----
A--5555-5555-7777-7777-3333-3333--7--5--7--5-----
E--3333-3333-5555-5555---------------------------



E------------------------------------------------
B------------------------------------------------
G---------------------------------6666--5555-----
D----------------------5555-5555--5555--5555-----
A--5555-5555-7777-7777-3333-3333--7777--5555-----
E--3333-3333-5555-5555---------------------------


the lyrics are also easy to remember just listen to the song
for the rhythm and stuff.... uh... yeah

Kommentar

Log ind eller opret en bruger, for at skrive en kommentar


Kontakt os • Hvis du oplever nogen problemer, finder fejl eller har forslag. Copyright 2007 - 2018