Log ind         eller        Opret en gratis konto
 
  Tilbage

Musicmate.dk | Stevie Wonder - Superstition Guitar Tabs/Fingerspil

Stevie Wonder - Superstition

Guitar Tabs/Fingerspil
         Slå akkorder op    Print sang  Se forfatter 


       Gtr I
|----------------|--------------------|
|----------------|--------------------|
|----------------|--------------------|
|----------------|---------5----------|
|------------5-7-|---7-5-7-----5----7-|
|-------5h7------|-0---------x----x---|


|--------------------|---------------------|
|------------------8-|---------------------|
|------------------9-|---------------------|
|---------5--------9-|---------5-----------|
|-----5-7-----5----7-|---7-5-7-----5----7--|
|-5-7-------x----x---|-0---------x----x----|


 Verse
|-------------------3-|---0-(0)--------------|
|-----------5---5-3---|----------------------|
|---------7-------4---|----------------------|
|---------5-------5---|-----------5----------|
|-----5-7-----5---7---|---7--5--7-----5----7-|
|-5-7-----------------|-0-----------x----x---|


|---------------------|---------------------|
|---------------------|---------------------|
|---------7-4---2-0h2p|=0-------------------|
|---------5-------2---|---------5-----------|
|-----5-7-----5-------|---7-5-7-----5----7--|
|-5-7-----------------|-0---------x----x----|


|-------------------3-|---0-(0)--------------|
|-----------5---5-3---|----------------------|
|---------7-------4---|----------------------|
|---------5-------5---|-----------5----------|
|-----5-7-----5---7---|---7--5--7-----5----7-|
|-5-7-----------------|-0-----------x----x---|


|-----------------------|------------------------|
|-----------------------|------------------------|
|---------7-4--2--0-2p0-|-(0)--------------------|
|---------5---------2---|-----------5------------|
|-----5-7------5--------|-----7-5-7-----5----7---|
|-5-7-------------------|--0----------x----x-----|


|---------------------3-|---12-10S12----0----------10h11p10-----12-12--|
|-----------5--5------3-|--------------------10h12-----------12--------|
|---------7-------7-----|----9------------12---------------------------|
|---------5-------------|----9--0-------------------0----(0)-----------|
|-----5-7------5----7---|----7------------10---------------------------|
|-5-7-------------------|-0----------12-------------------------12-----|


|---12-------------19---17----15---------|
|------15S17----17----0------------17----|
|--------------------------------0-------|
|-------0-------12-----------------------|
|-0------------------------12------12----|
|----7-------12----15------10------12h15-|


|---12-10S12----0----------10h11p10-----12-12-|
|--------------------10h12-----------12-------|
|-----------------12--------------------------|
|-------0-------------------0----(0)----------|
|-----------------10--------------------------|
|-0-12-------12-------------------------12----|


|---12-10S12----12-19-0-17-0-15-0-------|
|---------------------------------17----|
|------------------------------------12-|
|-------0------------------0------------|
|-0----------------17-------------------|
|----7-------12----15-------------12----|


|---12-10S12----0----------10h11p10-----12-12-|
|--------------------10h12-----------12-------|
|----9------------12--------------------------|
|----9--0-------------------0----(0)----------|
|----7------------10--------------------------|
|-0----------12-------------------------12----|


|---12-------------19---17----15---------|
|------15S17----17----0------------17----|
|--------------------------------0-------|
|-------0-------12-----------------------|
|-0------------------------12------12----|
|----7-------12----15------10------12h15-|


|---12-10S12----0----------10h11p10-----12-12-|
|--------------------10h12-----------12-------|
|-----------------12--------------------------|
|-------0-------------------0----(0)----------|
|-----------------10--------------------------|
|-0-12-------12-------------------------12----|


 Chorus
                                      B7            C7+11
|---12-10S12----12-19-17---15-------|----------------------------------|
|------------------------0----0---7-|-(7)--(7)-7--8--(8)---(8)--8--8-7-|
|---------------------------------8-|-(8)--(8)-8-11-(11)--(11)-11-11-8-|
|-------0----------------0--------7-|-(7)--(7)-7--8--(8)---(8)--8--8-7-|
|-0------------------------14-------|----------------------------------|
|----7-------12----15-----------0---|--7--------------8----------------|


  B7         Bb13+11          A7
                                      T      T         T
|----------0-(0)--(0)---0---|--------------------------------------|
|-(7)--7---8-(8)--(8)-----8-|-(8)5---(5)---------------------------|
|-(8)--8-9-7-(7)--(7)-7-----|----6---(6)---------------------------|
|-(7)--7---6-(6)--(6)-------|----5---(5)---------------------------|
|---------------------------|------------h7-10-(10)p7-10S12S10p7---|
|--7----------6-------------|--5h==7--9--------------------------5-|


  B7+9
|-------------3-3-0------------|
|-3-3-3-3-3-3-3-3---0----------|
|-2-2-2-2-2-2-2-2-----2p0h2p0--|
|-1-1-1-1-1-1-1-1--------------|
|-2-2-2-2-2-2-2-2--------------|
|------------------------------|


 Post-Chorus
  (Em7)                         D/A  A/D  G    A  Em
|-<12>------------------------|-10----9---7-----9-0-|
|-<12>------------------------|-10---10---8----10-0-|
|-<12>------------------------|-11----9---7-----9-0-|
|-----------------------------|-------0---5--0------|
|---------------10------------|--0------7---------7-|
|---0--12-10-12----x-10--x-12-|----7----------------|


                         D/A  A/D  G    A  Em(Em9)
|-(0)------------------|-10----9---7-----9-0--|
|-(0)------------------|-10---10---8----10-0--|
|-(0)------------------|-11----9---7-----9-0--|
|-----------5----------|-------0---5--0-------|
|-----7-5-7-----5----7-|--0------7---------7--|
|--0----------x----x---|----7-----------------|


 Outro
  (Em9)
|-(0)------------------|---------0----------|
|--7--------8----------|-7------------------|
|-(0)------------------|--------------------|
|-----------5----------|---------5----------|
|-----7-5-7-----5----7-|-----5-7-----5----7-|
|--0----------x----x---|-5-7-------x----x---|


|--------------------|---------0-----------|
|-7-------8----------|-7-------------------|
|--------------------|---------------------|
|---------5----------|---------5-----------|
|---7-5-7-----5----7-|-----5-7-----5----7--|
|-0---------x----x---|-5-7-------x----x----|


||------12--10S12----0----------10h11p10-----12-12-|
||o-----------------------10h12-----------12-------|
||--11-(11)------------12--------------------------|
||-----------0-------------------0----(0)----------|
||o--------------------10--------------------------|
||---0--12--------12-------------------------12----|


                                         4x
|-----12--10S12----12-19-17---15--<12>---||
|---------------------------------<12>--o||
|-11-(11)-------------------------<12>---||
|----------0----------14----0-(0)--------||
|--0------------------------------------o||
|------7--------12----15----------<12>---||

Kommentar

Log ind eller opret en bruger, for at skrive en kommentar


Kontakt os • Hvis du oplever nogen problemer, finder fejl eller har forslag. Copyright 2007 - 2018