Log ind         eller        Opret en gratis konto
 
  Tilbage

Musicmate.dk | Full Dueling Banjos Guitar Akkorder

Full Dueling Banjos

Guitar Akkorder
         Slå akkorder op    Print sang  Se forfatter 


Guitar 2

e-----------------------------------------------------------------------I
B-----------------------------------------------------------------------I
G-------------------------0--2--0-------------------------------------I
D----------0--0--0--2--4-----------4--------------------------------I
A-----------------------------------------------------------------------I
E-----------------------------------------------------------------------I


Guitar 1

e-----------------------------------------------------------------------I
B----------3--3--3--5--3----------3--3--3--5--3-------------------I
G----------4--4--4--5--4----------4--4--4--5--4-------------------I
D-----------------------------------------------------------------------I
A-----------------------------------------------------------------------I
E-----------------------------------------------------------------------I


Guitar 2

e-----------------------------------------------------------------------I
B----------0--0--0--1--0----------0--0--0--1--0-------------------I
G----------0--0--0--0--0----------0--0--0--0--0-------------------I
D----------0--0--0--2--0----------0--0--0--2--0-------------------I
A-----------------------------------------------------------------------I
E-----------------------------------------------------------------------I


Guitar 1

e-----------------------------------------------------------------------I
B----------3--3--3--5--3----------3--3--3--5--3-------------------I
G----------4--4--4--5--4----------4--4--4--5--4-------------------I
D-----------------------------------------------------------------------I
A-----------------------------------------------------------------------I
E-----------------------------------------------------------------------I


Guitar 2

e-----------------------------------------------------------------------I
B----------0--0--0--1--0----------0--0--0--1--0-------------------I
G----------0--0--0--0--0----------0--0--0--0--0-------------------I
D----------0--0--0--2--0----------0--0--0--2--0-------------------I
A-----------------------------------------------------------------------I
E-----------------------------------------------------------------------I


Guitar 1

e-----------------------------------------------------------------------I
B----------0--1--3--0--1-----0--------------------------------------I
G-------------------------2-----0--2----------------------------------I
D-----------------------------------------------------------------------I
A-----------------------------------------------------------------------I
E-----------------------------------------------------------------------I


Guitar 2

e-----------------------------------------------------------------------I
B-----------------------------------------------------------------------I
G-----------------------------------------------------------------------I
D----------------0-----------------------------------------------------I
A----------2--3-----2--3--0--2-----0--------------------------------I
E-------------------------------3--------------------------------------I


Guitar 1

e---------------------------------------------------------------------I
B----------0--1--3--0--1-----0-------------------------------------I
G-------------------------2-----0--2--------------------------------I
D---------------------------------------------------------------------I
A---------------------------------------------------------------------I
E---------------------------------------------------------------------I


Guitar 2

e-----------------------------------------------------------------------I
B-----------------------------------------------------------------------I
G-----------------------------------------------------------------------I
D----------------0-----------------------------------------------------I
A----------2--3-----2--3--0--2-----0--------------------------------I
E-------------------------------3--------------------------------------I


Guitar 1

e-----------------------------------------------------------------------I
B----------------------0-----0-----------------------------------------I
G-------------0--0--2-----0-----2------------------------------------I
D----------0-----------------------------------------------------------I
A-----------------------------------------------------------------------I
E-----------------------------------------------------------------------I


Guitar 2

e-----------------------------------------------------------------------I
B-----------------------------------------------------------------------I
G-----------------------------------------------------------------------I
D-----------------------------------------------------------------------I
A-----------------------------------------------------------------------I
E----------0--3--3--5--7--3--3--5--7------------------------------I

Kommentar

Log ind eller opret en bruger, for at skrive en kommentar


Kontakt os • Hvis du oplever nogen problemer, finder fejl eller har forslag. Copyright 2007 - 2018