Log ind         eller        Opret en gratis konto
 
  Tilbage

Musicmate.dk | Burhan G ft. Medina - Mest ondt Guitar Akkorder

Burhan G ft. Medina - Mest ondt

Guitar Akkorder
         Slå akkorder op    Print sang  Se forfatter 


Tuning: Half step down (eb, Bb, Gb, Db, Ab, Eb)


Giv den iøvrigt bare gas med hammer-ons!



Intro: 

e---------------------------------------------
b------3---3-----3---3-----3---3-----3---3----
g----2---2-----0---0---------0---------0------
d--0---------2-----------2---------2----------
a----------------------3---------3------------
e---------------------------------------------

e-----0h2------------------------------------
b-----------3-----3---3-----3---3-----3---3--
g---------2-----0---0---------0---------0----
d--0----------2-----------2---------2--------
a-----------------------3---------3----------
e--------------------------------------------


Verse:

e---------------------------------------------
b------3---3-----3---3-----3---3-----3---3----
g----2---2-----0---0---------0---------0------
d--0---------2-----------2---------2----------  X 4 
a----------------------3---------3------------
e---------------------------------------------


Stod det til mig var du stadig her.

Vi ville følge hinanden ikke gå fra hinanden.

Stod det til mig var det mig du holdte om i nat.


Stod det til mig havde jeg stoppede tiden.

Vi gled fra hinanden nu har jeg en anden.

Og det er for sent det ikke dig jeg holder om i nat.



Prechorus:

      D           Em7       Cadd9      
Du har fået det det bedste af alting af hvad jeg kunne give dig.

 D      Em7         Cadd9
Uden chancen får at få det tilbage igen.



Chorus:            

             Em7         Cadd9                  G                        Dsus4     D
Det der gør mest ondt er alt det jeg savner nu det du giver videre nu til en der ikke er 

Em7                  Cadd9      G             Dsus4
mig. Men det der gør mest ondt det det der gør mest ondt.

        Em7         Cadd9      G         Dsus4    D         Em7                   Cadd9      G             
Når du smiler igen elsker igen rør igen ved en der ikke er mig når jeg ikke er din mere 
               Dsus4      D
er det der gør mest ondt.


Interlude: Em7-Cadd9-G-Dsus4-D X2


Verse 2: 


e---------------------------------------------
b------3---3-----3---3-----3---3-----3---3----
g----2---2-----0---0---------0---------0------
d--0---------2-----------2---------2----------  X 2
a----------------------3---------3------------
e---------------------------------------------


Det ikke kun mig der har taget et valg.

Vi gjorde det svært for hinanden vi blev rørt af en anden det ikke kun mig nu har vi 

begge valgt at gå hver vores vej.

Jeg lod dig sikkert vente alt for længe kun fordi jeg var bange for hver eneste tanke og 

hvad du vil sige nu det klart for mig at det er forbi.


Prechorus

Chorus

Bridge:

Em7             Cadd9              G      D
Hvad hvis jeg venter på dig lidt endnu.

Em7         Cadd9             G      D
Selvom jeg ved du er en andens nu.

Em7                 Cadd9 G D
Det det der gør mest ondt.


Chorus

Kommentar

Log ind eller opret en bruger, for at skrive en kommentar


Kontakt os • Hvis du oplever nogen problemer, finder fejl eller har forslag. Copyright 2007 - 2018