Log ind         eller        Opret en gratis konto
 
  Tilbage

Musicmate.dk | Anneke van Giersbergen - Hey Okay Guitar Akkorder

Anneke van Giersbergen - Hey Okay

Guitar Akkorder
         Slå akkorder op    Print sang  Se forfatter 




Guitar solo


e|-------------------------------------------------------------------------------
B|----------16-----------------------------------------------------------13----
G|------17-----17~-15--13--12--h13--p12---------------------------13----
D|--15-----------------------------------------13--15~~--13--h15----------
A|------------------------------------------------------------------------------
E|------------------------------------------------------------------------------


e|-----------------------------15-15-15-p15-p13-11--13-13--11------------
B|----------16--------------------------------------------------------11~~---
G|------17-----17~-15--13---------------------------------------------------
D|--15-------------------------------------------------------------------------
A|------------------------------------------------------------------------------
E|------------------------------------------------------------------------------


e|------------------------------------------------------------------------------
B|----------16-----------------------------------------------------------------
G|------17-----17~-15--13--12--13--15----------------------13-----------
D|--15--------------------------------------13--15~~13--h15--------------
A|-----------------------------------------------------------------------------
E|-----------------------------------------------------------------------------



e|------------------------------------b15--b15--b15~~---------------------
B|-----------------------------------------------------------------------------
G|-----------17---------------------------------------------------------------
D|--15--18------18--17--15--13--------------------------------------------
A|-----------------------------------------------------------------------------
E|-----------------------------------------------------------------------------




Dm   Am   Em   Am

     Dm           Am
Your eyes, your shoes
      Em       Am
It’s hard to choose
        Dm          Am
But the best thing about you 
       Em            Am
Is the way that you move

Dm       Am         
Side by side 
       Em        Am
All through the night
         Dm               Am
And the thing we drop the most
      Em               Am
Is to see the more in life

Dm   Am                   
Hey okay! 
               Em          Am
Why don’t you stay another day
           Dm     Am
And if it feels alright 
          Em           Am
Will you stay another night

Dm     Am
Hey alright!
               Em           Am
Why don’t you stay another night
           Dm    Am
And if it feels okay 
          Em          Am
Will you stay another day
 
      Dm       Am
Your place or mine
    Em          Am
Whatever, it’s fine
      Dm          Am
Lets dance, let’s sue 
     Em    Am
The night away

    Dm        Am   
No fear, no shame 
    Em        Am
We play this game
        Dm          Am
And the best thing about you
   Em                   Am
I don’t even know your name


Dm   Am                   
Hey okay! 
               Em          Am
Why don’t you stay another day
           Dm     Am
And if it feels alright 
          Em           Am
Will you stay another night

Dm     Am
Hey alright!
               Em           Am
Why don’t you stay another night
           Dm    Am
And if it feels

Kommentar

Log ind eller opret en bruger, for at skrive en kommentar


Kontakt os • Hvis du oplever nogen problemer, finder fejl eller har forslag. Copyright 2007 - 2018