Log ind         eller        Opret en gratis konto
 
  Tilbage

Musicmate.dk | Elvis Presley - Only You Guitar Akkorder

Elvis Presley - Only You

Guitar Akkorder
         Slå akkorder op    Print sang  Se forfatter 


E||---7777-66-7-------------|-----------3-----------------3--------|
B||---7777-66-7-------------|--------0-----0-----------0-----0-----|
G||---6666-77-9-------------|-----0-----------0-----0-----------0--|
D||---7777-66-7-------------|--------------------------------------|
A||---9999-88-9-------------|--------------------------------------|
E||---7777-66-7-------------|--3-----------------3-----------------|


                                                                              
-----------3-----------------3--------|-----------2-----------------2--------|
--------0-----0-----------0-----0-----|--------0-----0-----------0-----0-----|
-----0-----------0-----0-----------0--|-----2-----------2-----2-----------2--|
--------------------------------------|--------------------------------------|
--------------------------------------|--2-----------------2-----------------|
--3-----------------3-----------------|--------------------------------------|


                                                                              
-----------2-----------------2--------|-----------0-----------------0--------|
--------0-----0-----------0-----0-----|--------0-----0-----------0-----0-----|
-----2-----------2-----2-----------2--|-----0-----------0-----0-----------0--|
--------------------------------------|--------------------------------------|
--2-----------------2-----------------|--------------------------------------|
--------------------------------------|--0-----------------0-----------------|


                                                                              
-----------0-----------------0--------|-----------1-----------------1--------|
--------0-----0-----------0-----0-----|--------0-----0-----------0-----0-----|
-----0-----------0-----0-----------0--|-----0-----------0-----0-----------0--|
--------------------------------------|--------------------------------------|
--------------------------------------|--------------------------------------|
--0-----------------0-----------------|--3-----------------3-----------------|


                                                                              
-----------1-----------------1--------|-----------0-----------------0--------|
--------0-----0-----------0-----0-----|--------1-----1-----------1-----1-----|
-----0-----------0-----0-----------0--|-----0-----------0-----0-----------0--|
--------------------------------------|--------------------------------------|
--------------------------------------|--3-----------------3-----------------|
--3-----------------3-----------------|--------------------------------------|


                                                                              
-----------2-----------------2--------|-----------3-----------------2--------|
--------1-----1-----------1-----1-----|--------0-----0-----------0-----0-----|
-----2-----------2-----2-----------2--|-----0-----------0-----2-----------2--|
--0-----------------0-----------------|--------------------------------------|
--------------------------------------|--------------------2-----------------|
--------------------------------------|--3-----------------------------------|


                                                                              
--------------------------------------|-----------0-----------------0--------|
--------0--------0--------0--------0--|--------2-----2-----------2-----2-----|
-----0--------0--------0--------0-----|-----0-----------0-----0-----------2--|
--2--------1--------0-----------------|--------------------------------------|
-----------------------------4--------|--0-----------------0-----------------|
--------------------------------------|--------------------------------------|


                                                                              
-----------0-----------------0--------|-----------0-----------------0--------|
--------2-----2-----------2-----2-----|--------1-----1-----------1-----1-----|
-----0-----------0-----0-----------2--|-----0-----------0-----0-----------0--|
--------------------------------------|--------------------------------------|
--0-----------------0-----------------|--0-----------------0-----------------|
--------------------------------------|--------------------------------------|


                                                           
--2----------------|-----------3-----------------3--------|
--1----------------|--------0-----0-----------0-----0-----|
--2----------------|-----0-----------0-----0-----------0--|
--0----------------|--------------------------------------|
-------------------|--------------------------------------|
-------------------|--3-----------------3-----------------|


                                                                              
-----------3-----------------3--------|-----------2-----------------2--------|
--------0-----0-----------0-----0-----|--------0-----0-----------0-----0-----|
-----0-----------0-----0-----------0--|-----2-----------2-----2-----------2--|
--------------------------------------|--------------------------------------|
--------------------------------------|--2-----------------2-----------------|
--3-----------------3-----------------|--------------------------------------|


                                                                              
-----------2-----------------2--------|-----------0-----------------0--------|
--------0-----0-----------0-----0-----|--------0-----0-----------0-----0-----|
-----2-----------2-----2-----------2--|-----0-----------0-----0-----------0--|
--------------------------------------|--------------------------------------|
--2-----------------2-----------------|--------------------------------------|
--------------------------------------|--0-----------------0-----------------|


                                                                              
-----------0-----------------0--------|-----------1-----------------1--------|
--------0-----0-----------0-----0-----|--------0-----0-----------0-----0-----|
-----0-----------0-----0-----------0--|-----0-----------0-----0-----------0--|
--------------------------------------|--------------------------------------|
--------------------------------------|--------------------------------------|
--0-----------------0-----------------|--3-----------------3-----------------|


                                                                              
-----------0-----------------0--------|-----------0-----------------0--------|
--------3-----3-----------3-----3-----|--------2-----2-----------2-----2-----|
-----1-----------1-----1-----------1--|-----0-----------0-----0-----------0--|
--------------------------------------|--------------------------------------|
--------------------------------------|--0-----------------0-----------------|
--0-----------------0-----------------|--------------------------------------|


                                                             
--2----1----2--------|-----------3-----------------3--------|
--1----0----1--------|--------0-----0-----------4-----4-----|
--2----1----2--------|-----0-----------0-----5-----------5--|
--0----0----0--------|--------------------------------------|
---------------------|--------------------3-----------------|
---------------------|--3-----------------------------------|


                                         
--10----------------|------------------||
--10----------------|------------------||
--9-----------------|------------------||
--9-----------------|------------------||
--10----------------|------------------||
--------------------|------------------||

Kommentar

Log ind eller opret en bruger, for at skrive en kommentar


Kontakt os • Hvis du oplever nogen problemer, finder fejl eller har forslag. Copyright 2007 - 2018