Log ind         eller        Opret en gratis konto
 
  Tilbage

Musicmate.dk | Ac/Dc - Back In Black Bass Tabs/Fingerspil

Ac/Dc - Back In Black

Bass Tabs/Fingerspil
         Slå akkorder op    Print sang  Se forfatter 


G--------------------------------------------------------------------
D--------------------------------------------------------------------
A-----5-5-5----------------------5-5-5----------------------------
E-0----------5-5-5-----------0---------5-5-5-7-4-7-5-7-6-7-7 Det spiller man i Intro og vers.

G-------------
D-------------
A-------------
E-5-0-7-5-7 I omkvædet. 

G--------------------------------------------------------------------
D--------------------------------------------------------------------
A-----5-5-5----------------------5-5-5----------------------------
E-0----------5-5-5-----------0---------5-5-5-7-4-7-5-7-6-7-7 I verset

G-------------
D-------------
A-------------
E-5-0-7-5-7 I omkvædet.

G---------------------------------------------
D---------------------------------------------
A-----5-5-5----------------------------------
E-0----------5-5-5--5-5-5--5-5-5--5-5-5 I solo

G-------------
D-------------
A-------------
E-5-0-7-5-7 I omkvædet. 

G---------------------------------------------
D---------------------------------------------
A-----5-5-5----------------------------------
E-0----------5-5-5--5-5-5--5-5-5--5-5-5 I solo

Kommentar

Log ind eller opret en bruger, for at skrive en kommentar


Kontakt os • Hvis du oplever nogen problemer, finder fejl eller har forslag. Copyright 2007 - 2018