Log ind         eller        Opret en gratis konto
 
  Tilbage

Musicmate.dk | Simon Juls - kærlighedssang Guitar Tabs/Fingerspil

Simon Juls - kærlighedssang

Guitar Tabs/Fingerspil
         Slå akkorder op    Print sang  Se forfatter 


INTRO + VERS


    C#sus4     A (åben)        Hsus4    E5 (åben) 
e|------------------4p0-----------0--------0-------------|
H|----------------0-----0---------0--------0-------------|
G|--9--8--9------6----------------8--------9-------------|
D|--9--9--9-----7----------------9--------9--------------|
A|--x--x--x----0----------------9--------7---------------|
E|--9--9--9--------------------7--------0----------------|


OMKVÆD

      G#m   A     C#    H     Bb
e|----4-----5-----8-----7-----6----|
H|----4-----5-----8-----7-----6----|
G|----4-----6-----9-----8-----7----|
D|----6-----7-----10----9-----8----|
A|----6-----7-----10----9-----8----|
E|----4-----5-----8-----7-----6----|


Kommentar

Log ind eller opret en bruger, for at skrive en kommentar


Kontakt os • Hvis du oplever nogen problemer, finder fejl eller har forslag. Copyright 2007 - 2018