Log ind         eller        Opret en gratis konto
 
  Tilbage

Musicmate.dk | Cake - Hem of your garment Bass Akkorder

Cake - Hem of your garment

Bass Akkorder
         Slå akkorder op    Print sang  Se forfatter 


 Verse

  Cm
G|---------------5--33-----------|
D|.--------------------6-5-------|
A|.-3-3----3--3-------------3-5--|
E|------3------------------------|

  Dm
G|-------------------------------|
D|---------------------3-5--6-5-.| Repeat
A|--5-5----5--5--5--66----------.|
E|------5------------------3-----|


 Solo

  Cm
G|-------------------------------|
D|.------------------------------|
A|.-3-3----3--3---3-55-6--3-5-6--|
E|------3------------------------|

 Fm
G|-------------------------------|
D|--3-3----3--3---------1-3--1-3-|    
A|------3-------------3----------|
E|-------------1--1--------------|

 Gm
G|-------------------------------|   
D|--------------------3-5----6-5-|   
A|-----------------55------------|
E|--3-3-0--3--3--3---------3-----| 

  Eb
G|-------------------------------|        
D|------------------------------.| Repeat         
A|--6-6----6-6--6-------6----6-5.|        \m/ 
E|------6----------33--6----6----|       

Kommentar

Log ind eller opret en bruger, for at skrive en kommentar


Kontakt os • Hvis du oplever nogen problemer, finder fejl eller har forslag. Copyright 2007 - 2018