Log ind         eller        Opret en gratis konto
 
  Tilbage

Musicmate.dk | Klovn Guitar Tabs/Fingerspil

Klovn

Guitar Tabs/Fingerspil
         Slå akkorder op    Print sang  Se forfatter 


#----------------------------------PLEASE NOTE---------------------------------#
#This file is the author's own work and represents their interpretation of the #
#song. You may only use this file for private study, scholarship, or research. #
#------------------------------------------------------------------------------##

Arranged by Peter Møller
Melodi, rytme osv må i selv lytte af :)
Gtr I (E A D G B E) - 'Klovn'


  Gtr I

|-8-8-8-8-7-7-7----|-------------7-8-10-|
|---------------10-|-10---8-8-10--------|
|------------------|----9---------------|
|------------------|--------------------|
|------------------|--------------------|
|------------------|--------------------|


  
|-8-7----8-7-8-8-8-|-8-7-7-7------------|
|-----10-----------|---------10-10----8-|
|------------------|---------------10---|
|------------------|--------------------|
|------------------|--------------------|
|------------------|--------------------|


  
|--------7-8-7------|------8-8-8-8-7-7-|
|-8-8-10-------10-8-|-10---------------|
|-------------------|----9-------------|
|-------------------|------------------|
|-------------------|------------------|
|-------------------|------------------|


  
|-7----------------7-|-8-10-12-10-8-10----10-|
|---10-10---8-8-10---|-----------------10----|
|---------9----------|-----------------------|
|--------------------|-----------------------|
|--------------------|-----------------------|
|--------------------|-----------------------|


   
|-10-10-12-13-8-8-8-10-|-12-------8-------8-|
|----------------------|----8-8-8---10-10---|
|----------------------|--------------------|
|----------------------|--------------------|
|----------------------|--------------------|
|----------------------|--------------------|


  
|-7--------10-10-10-12-|-13-8-8-8-10-12-----|
|---8-10-8-------------|----------------8-8-|
|----------------------|--------------------|
|----------------------|--------------------|
|----------------------|--------------------|
|----------------------|--------------------|


  
|---8-------8-7-10-8-|----|
|-8---10-10----------|----|
|--------------------|----|
|--------------------|----|
|--------------------|----|
|--------------------|----|

Kommentar

Log ind eller opret en bruger, for at skrive en kommentar


Kontakt os • Hvis du oplever nogen problemer, finder fejl eller har forslag. Copyright 2007 - 2018