Log ind         eller        Opret en gratis konto
 
  Tilbage

Musicmate.dk | Johnny Madsen - Johnny the Blues Guitar Akkorder

Johnny Madsen - Johnny the Blues

Guitar Akkorder
         Slå akkorder op    Print sang  Se forfatter 


(-------------------Johnny Madsen: Johnny the blues-------------------)
(-----------------------Tabbed af Steen Hoffmann----------------------)
(-------------------------Steens Guitar Arkiv:------------------------)
(-----------------------http://come.to/donkeydoc----------------------)




e)-----------------------------------------------------------------
B)---3---3-3--3-3-3/6-6---3---3-3-3--------------------------------
G)---2---0-2--0-0-2/5-5---2---0-2-0----5---------------------------
D)---0---0-0--0-0-0-0-----0---0-0-0--7---5h6h7p5-------------------
A)------------------------------------------------8-5--------------
E)-----------------------------------------------------------------

e)-----------------------------------------------------------------
B)---3---3-3--3-3-3/6-6---3---3-3----3-3---------------------------
G)---2---0-2--0-0-2/5-5---2---0-2----0-2---------------------------
D)---0---0-0--0-0-0-0-----0---0-0----0-0---------------------------
A)-----------------------------------------------------------------
E)-----------------------------------------------------------------


 
     G
e)-----------------------------------------------------------------
B)---3-3--1-1--0-0-------------------------------------------------------
G)---0-0--0-0--0-0-------------------------------------------------------
D)---0-0--0-0--0-0-------------------------------------------------------
A)---2-2--2-2--2-2-------------------------------------------------------
E)---3-3--3-3--3-3-------------------------------------------------------

INTRO:

     Dm            C            G
e)-------1-------------0-------------------------------------------
B)---------3-------------1------------3-----1-----1------1--3-1-0--
G)-----2-----2-------0-----0--------0---0-----0-----0-----------0--   (x2)
D)---0----------------------------0-------0-----0-----0------------
A)-----------------3-----------------------------------------------
E)------------------------------3----------------------------------




VERS:

Leadguitaren spiller arpeggio.
Det er palmmuted undtagen ved akkorden G.

Dm         F             C          Dm
På Pinky's nathus falder lyset lidt skævt
Dm               C         G
og juken spiller blues fra Californien
Dm         F     C          Dm 
Johnny the blues vender sig omkring
Dm            C             Dm
den fede lady sagde det var showtime


OMKVÆD:

F          C             G 
Johnny the blues, det er showtime
F          C      
Johnny the blues, show


VERS:

I de franske stræder med den rosafyldte duft
klinger havnekoret i de tavse timer
Johnny the blues går stille ved sin mur
folk de siger her går Johnny the dreamer

OMKVÆD

SOLO

OMKVÆD


Kommentar

Log ind eller opret en bruger, for at skrive en kommentar


Kontakt os • Hvis du oplever nogen problemer, finder fejl eller har forslag. Copyright 2007 - 2018