Log ind         eller        Opret en gratis konto
 
  Tilbage

Musicmate.dk | Johnny Madsen - Get Along Guitar Akkorder

Johnny Madsen - Get Along

Guitar Akkorder
         Slå akkorder op    Print sang  Se forfatter 


Johnny Madsen - Get Along

INTRO:

     D             G    A
e)---------2-------3----5----------------2---0-2-3-2-0----------------
B)-------3---2-----3----5--------------3---3------------3-3~----------
G)-----2-------3---4----6---(x3)-----2--------------------------------
D)---0-------------5----7----------0----------------------------------
A)-----------------5----7---------------------------------------------
E)-----------------3----5---------------------------------------------

VERS:

D               G       A    D       G  A
På en crossroad  bag de lyse timer
D                      G   A    D         G  A
der hvor candyflossen  blir til ørkenstøv
D                   G        A       D      G  A
stod han stille  og skyggede for sin skygge
D                     G       A      D      G  A
og den hede vind  den gav ham en virksom ro
Bm            G           A
hans øjne var som de dybe dale
Bm                G               A
han længtes efter dengang han var ung


OMKVÆD:

(Her spiller guitaren introen)

Han sagde: Get along boy, get along, get along, get along boy

get along boy, get along, get along boy


VERS:

Bag hotellets port stod han og rejste kegler
hans slidte ryg bar vinen hjem hver nat
havets vinde varmede hans øjne
og en skygge på jorden var alt han havde efterladt
på de mørke timer gik han som en casanova
det var hans vagtværn når længslen blev lidt for stor

OMKVÆD

SOLO

e)--------------------------------------------------------------------
B)--------------------------------------------------------------------
G)------------------------------------------------------7h9-----------
D)-------------------------------------------------4-5--7h9-----------
A)---------------------7-7h9p7----------4----5-5-7-----------7h9-7~---
E)---7--7-9-10-7--9-10----------5-5---5---7---------------------------

e)--------------------------------------------------------------------
B)--------------------------------------------------------------------
G)--------------------------------------------------------------------
D)-------------4-6-7--------------------------------------------------
A)-------4-5-7--------------------------------------------------------
E)---5-7--------------------------------------------------------------

OMKVÆD x2

Kommentar

Log ind eller opret en bruger, for at skrive en kommentar


Kontakt os • Hvis du oplever nogen problemer, finder fejl eller har forslag. Copyright 2007 - 2018