Log ind         eller        Opret en gratis konto
 
  Tilbage

Musicmate.dk | Kim Larsen - This is my life Guitar Tabs/Fingerspil

Kim Larsen - This is my life

Guitar Tabs/Fingerspil
         Slå akkorder op    Print sang  Se forfatter 


Kim Larsen – This is my life

Intro.  C - C - C - C 
        C            G  Am           F 
1.       This is my life, this is my time 
        Am           G         F     C    C 
         show me the light and I go there. 
        C            G    Am          F  
         Give me the wine, bitter and sweet, 
        Am                 G           F     C    C    
         a little bit of bread, that's all I need. 
         
        Am                    E7 
Chor.    I don't want the gold from Xanadu 
           F                       C            Am                       
         I think I leave it all to you, wow wow wow    
                      G      F       C    C   
         this is my life and I don't care. 
        C           G     Am                 F 
2.       This is my street, are you restless feet 
        Am        G     F       C - C       
         carry me on to anywhere
        C         G   Am        F 
         Take the fear, take it away, 
        Am                 G        F        C   C         
         and leave me some hope for one more day. 
 Chor.       Am               E7             
          I saw a ghost behind the door  
                  F                         C            Am 
         when the kids coming home from the war, wow wow wow 
                     G          F       C    C  
         with broken dreams and nothing more. 
        Am                 E7 
         I heard a woman, singing her song 
                    F                   C              Am 
         and it was good, and warm and strong, wow wow wow 
                     G      F          C   C  
         She made me cry, I don't know why. 


Solo.   C - G - Am - F - Am - G  F - C - C 
        C - G - Am - F - Am - G  F - C - C  

        Am               E7 
Chor.    I don't want to bring you down 
              F                    C             Am                  
         I declare it's good to be here, wow wow wow  
                    G        F       C      C-----------| 
         this is my life and I don't care. Uhhhhhhhhhhhh|



   |  G    |       | Am    |        |       |       |       |        
|--------------------------------|--------------------------------|
|--------------------------------|--------------------------------|
|--------------------------------|--------------------------------|
|-----0--2--0--------------------|--------------------------------|
|--------------2---0-------------|----0--2--3---------------------|
|----------------3---------------|--------------------------------|

 |       |       |       |        |       |       |       |        
|--------------------------------|--------------------------------|
|--------------------------------|--------------------------------|
|--------------------------------|--------------------------------|
|--------------------------------|--------------------------------|
|---3--2--0----------------------|--------------------------------|
|--------------------------------|--------------------------------|

Gå ind på youtube og skriv Kim larsen – splittergalla, så kommer der et klip hvor han spiller This is my life og der kan i se den måde han spiller fingerspil, og de gange han bruger tabsene til at skifte akkorder, lyt til den og prøv og fang de toner han spiller mellem akkorderne

Håber i kan bruge denne, vidunderlige sang.!:-D


Kommentar

Log ind eller opret en bruger, for at skrive en kommentar


Kontakt os • Hvis du oplever nogen problemer, finder fejl eller har forslag. Copyright 2007 - 2018