Log ind         eller        Opret en gratis konto
 
  Tilbage

Musicmate.dk | Greensleeves - Anonym Guitar Tabs/Fingerspil

Greensleeves - Anonym

Guitar Tabs/Fingerspil
         Slå akkorder op    Print sang  Se forfatter 


Greensleeves                                  
                                                                        

     E     Q.     E  E.  S    E  Q.     E  E     S S E  Q    E  E   
E||-----|------------0---1-|--0---------------|--------------------|
B||-----|--1------3--1-----|-----3------0-----|------0--1----------|
G||--2--|--2---------------|-----0---------0--|--L-2----2----2--2--|
D||-----|------------------|---------------0--|--L-----------------|
A||-----|--0---------3-----|------------------|---------0-------0--|
E||-----|------------------|-----3---------3--|--L-----------------|


  S S E  Q    E  E     E  E  Q.     E     E.  S E  Q.        E  E.  S E  E.  S  
--------------------|------------------|--0---1-0---------|--------------------|
---------0----------|--------1------3--|--1--------3------|--0--------0--1---0-|
--L-1-2-------1-----|-----2--2---------|-----------0------|-----0---2----2-----|
-----------------2--|--L---------------|------------------|-----0--------------|
--L-----------------|--------0---------|--3---------------|--------------0-----|
---------0----------|------------------|-----------3------|-----3--------------|


  E  E.  S E  Q       S S Q.     Q       E  E.  S E  Q       E  E  E.  S E  E   
-------------------|-------------3----|--L--3---2-0-------|--------------------|
-------------------|------------------|--------------3----|--L--0--------0--1--|
--2--1-----1--2----|--L-L-2-----------|--------------0----|--L-----0---2----2--|
---------4----2----|--L-L-2------2----|--L--2-------------|--------0-----------|
--------------0----|--L-L-0------3----|--L--3-------------|-----------------0--|
-----0-------------|------------------|--------------3----|--L-----3-----------|


  E  E  E.  S E  E     E  E  Q.     E     Q    E.  S E  E     Q    E  E.  S E   
--------------------|---------------3--|--L----3---2-0-----|-------------------|
--L--------------0--|--L---------------|----------------3--|--L----0--------0--|
--L--2--2---1-2-----|-----1------------|----------------0--|--L-------0---2----|
--------------------|--------2------2--|--L----2-----------|----------0--------|
--L-----0-----------|---------------3--|--L----3-----------|-------------------|
-----------------0--|--L---------------|----------------3--|--L-------3--------|


  E.  S E  E.  S E     Q.     Q    E    
--------------------|-----------------||
--1---0-------------|-----------------||
--2-----2--1-----1--|--2------2-------||
---------------4----|--2------2-------||
--0-----------------|--0------0-------||
-----------0--------|-----------------||

Kommentar

Log ind eller opret en bruger, for at skrive en kommentar


Kontakt os • Hvis du oplever nogen problemer, finder fejl eller har forslag. Copyright 2007 - 2018