Log ind         eller        Opret en gratis konto
 
  Tilbage

Musicmate.dk | Kim Larsen - hvad gør vi nu lille du Guitar Akkorder

Kim Larsen - hvad gør vi nu lille du

Guitar Akkorder
         Slå akkorder op    Print sang  Se forfatter 





A             E         E     A
  Jeg kom til verden på femte sal
A              A         D          A       A
  Min far var tosset min mor var normal
          A         E         D        A    A       Hm/F#
Men da de kørte ham væk sagde moar til mig (wah wah wah)
Hm          E  D     A     A     A     A
Hvad gør vi nu lille du?


A           E       E     A
  Jeg gik i skole i mange år
A          A           D   A       A
  Røg på fabrik og fik mavesår
A       E            D          A   A       Hm/F#
  Så en dag sparked' bossen mig ud (wah wah wah)
Hm           E  D     A     A     A     A
Hvad gør man så lille du?


A          E      E       A
  Og tiden gik og jeg gik med
A             A          D        A       A
  Jeg fløj af sted - fra sted til sted
   A           E        D          A     A       Hm/F#
Og gadens løse fugle de fløjted og sang (wah wah wah)
Hm          E   D     A     A     A     A
Hvor ska vi hen lille du?


[solo = melodiestemmen hen over akkorderne fra verset, så vidt jeg husker]

e|--5-5-5-7---7-7--------------
H|----------------9-7-9---10---
G|-----------------------------
D|-----------------------------
A|-----------------------------
E|-----------------------------

e|--9-9-9-9-9---9-10-9-10---9--
H|-----------------------------
G|-----------------------------
D|-----------------------------
A|-----------------------------
E|-----------------------------

e|-----------------------10--------
H|-10-10-10-10-9---9-7-7----7\5-5--
G|---------------------------------
D|---------------------------------
A|---------------------------------
E|---------------------------------

e|---10-9-7---5-5-5------------
H|-7---------------------------
G|-----------------------------
D|-----------------------------
A|-----------------------------
E|-----------------------------


(Akkorderne fortsætter herefter som i de andre vers, men man skal nok høre nummeret for at lære, hvordan de to sidste vers synges/snakkes)

A           E                    E           A
  Men så en dag gik jeg op til ministeren og sagde:
A                 A                   D      A       A
  Du der! Få lige fødderne ned, og ta hatten af!
A               E              D                       A     A    Hm/F#
  Ka' du ikke se at det hele er ved at gå fuldstændig agurk?
Hm          E      D     A       A     A     A
Hvad gør vi nu din gamle skurk?


A         E      E       A
  Men han grinte bare og sagde:
A                 A       D        A       A
  Dig, du ka' sgu bare gå fanden i vold
Hm/F#   Hm         E  D     A       A     A     A
     Så det gør vi nu lille du...



Fungerer særdeles glimrende hvis akkorderne spilles således (én gang for hver gang akkorden står anført):

    A
e|-----------
H|------2----
G|------2----
D|----2---2--
A|--0--------
E|-----------

    E
e|-----------
H|------0----
G|------1----
D|----2---2--
A|-----------
E|--0--------

    D
e|------2----
H|------3----
G|----2---2--
D|--0--------
A|-----------
E|-----------

    Hm/F#
e|-----------
H|------3----
G|------4----
D|----4---4--
A|-----------
E|--2--------

    Hm
e|-----------
H|------3----
G|------4----
D|----4---4--
A|--2--------
E|-----------


Kommentar

Log ind eller opret en bruger, for at skrive en kommentar


Kontakt os • Hvis du oplever nogen problemer, finder fejl eller har forslag. Copyright 2007 - 2018