Log ind         eller        Opret en gratis konto
 
  Tilbage

Musicmate.dk | Kim Larsen - Midt om Natten/sang tema Guitar Tabs/Fingerspil

Kim Larsen - Midt om Natten/sang tema

Guitar Tabs/Fingerspil
         Slå akkorder op    Print sang  Se forfatter 


MAN KAN SPILLE DEN FLERE STEDER. JEG VIL VISE JER TRE AF DEM


FØRSTE OG DET ER DEN SOM KIM LARSEN SELV SPILLER:

E)------------------------------------------------------------------------------
B)------------------------------------------------------------------------------
G)------------------------------------------------------------------------------
D)-----5--5------6--6--------5--5------6--6--------5--5------6--6---------------
A)---3--3------3--3--------3--3------3--3--------3--3------3--3-----------------
E)------------------------------------------------------------------------------

OG SÅ BARE GENTAG DET FLERE GANGE.



ANDEN:

E)------------------------------------------------------------------------------
B)------------------------------------------------------------------------------
G)------------------------------------------------------------------------------
D)------------------------------------------------------------------------------
A)-----2--2------3--3--------2--2------3--3--------2--2------3--3---------------
E)---0--0------0--0--------0--0------0--0--------0--0------0--0-----------------





TREDJE:

E)------------------------------------------------------------------------------
B)------------------------------------------------------------------------------
G)-----2--2------3--3--------2--2------3--3--------2--2------3--3---------------
D)---0--0------0--0--------0--0------0--0--------0--0------0--0-----------------
A)------------------------------------------------------------------------------
E)------------------------------------------------------------------------------


HYG JER MED DE TRE TEMA'ER AF SANGEN <3<3<3

Kommentar

Log ind eller opret en bruger, for at skrive en kommentar


Kontakt os • Hvis du oplever nogen problemer, finder fejl eller har forslag. Copyright 2007 - 2018