Log ind         eller        Opret en gratis konto
 
  Tilbage

Musicmate.dk | The Calling - Wherever you will go Guitar Tabs/Fingerspil

The Calling - Wherever you will go

Guitar Tabs/Fingerspil
         Slå akkorder op    Print sang  Se forfatter 


Capo 2. bånd.

Intro:

                                                                    
E|-----------------|-----------------|-----------------|---------------|
B|-----------1-----|-----------1-----|-----------1-----|-----1-----1-1-|
G|-----0---0---0---|-----0---0---0---|-----0---0---0---|-------0---0-0-|
D|---2---2-------2-|---0---0-------0-|---2---2-------2-|---0-----------|
A|-3---------------|-2---------------|-0---------------|---------------|
E|-----------------|-----------------|-----------------|-1-------1-----|

Vers 1:


          C                 G                Am               F          
E|-----------------|-----------------|-----------------|---------------|
B|-----------1-----|-----------1-----|-----------1-----|-----1-----1-1-|
G|-----0---0---0---|-----0---0---0---|-----0---0---0---|-------0---0-0-|  Gentag
D|---2---2-------2-|---0---0-------0-|---2---2-------2-|---0-----------|    3x
A|-3---------------|-2---------------|-0---------------|---------------|
E|-----------------|-----------------|-----------------|-1-------1-----| 




Omkvæd: C - G - Am - F. 2x

Kommentar

Log ind eller opret en bruger, for at skrive en kommentar


Kontakt os • Hvis du oplever nogen problemer, finder fejl eller har forslag. Copyright 2007 - 2018