Log ind         eller        Opret en gratis konto
 
  Tilbage

Musicmate.dk | Olesangen Guitar Tabs/Fingerspil

Olesangen

Guitar Tabs/Fingerspil
         Slå akkorder op    Print sang  Se forfatter 




Intro
e|--3----0---------------------------------------|
B|---2----2----3---------------------------------|
G|---------------2----0--------------------------|
D|-----------------------2-----------------------| 
A|------------------------3----------------------|
E|-------------------------2---------------------|

      "G"         "EM"        "C"           "D"
e|--3-----3-----0-----0-------------------------------|
B|--------------------------3-----3-------------------|
G|----------------------------------------0-----0-----|
D|----0-----0-----0-----0-----0-----0-------2-----2---|
A|----0-----0-----0-----0-----1-----1-------3-----3---|
E|------------------------------------------2-----2---|



Kommentar

Log ind eller opret en bruger, for at skrive en kommentar


Kontakt os • Hvis du oplever nogen problemer, finder fejl eller har forslag. Copyright 2007 - 2018