Log ind         eller        Opret en gratis konto
 
  Tilbage

Musicmate.dk | Kashmir - Rocket brothers Guitar Akkorder

Kashmir - Rocket brothers

Guitar Akkorder
         Slå akkorder op    Print sang  Se forfatter 


Tuning: capo on 2nd fret
Chords used:
C x32010
D xx0232
E x22100
F 133211
Em x22000
Am x02210
Hm x24430
D7 xx0212
G/b x20033
Cmaj7 x32000

Intro
E--0-0-0-0-0-0-0-0--0--0--0--0-------------------------------------|
H-3-3-5-5-7-7-8-8-10-10-12-12--------------------------------------|
G------------------------------------------------------------------|
D------------------------------------------------------------------|
A------------------------------------------------------------------|
E------------------------------------------------------------------|

Verse 1
  Cmaj7       G/b         E           Em          Am
E---0--0--0--0--0--0--0--0--0--0--0--0--0--0--0--0--0--0--0--0-----|
H-12-12-12-12-12-12-12-12-12-12-12-12-12-12-12-12-13-13-13-13------|
G------------------------------------------------------------------|
D------------------------------------------------------------------|
A------------------------------------------------------------------|
E------------------------------------------------------------------|
  C           G           D           Hm          C+Cmaj7+Am
E---0--0--0--0--0--0--0--0--0--0--0--0--0--0--0--0--0--0--0--0-----|
H-13-13-13-13-12-12-12-12-10-10-10-10-15-15-15-15-12-12-12-12------|
G------------------------------------------------------------------|
D------------------------------------------------------------------|
A------------------------------------------------------------------|
E------------------------------------------------------------------|

  F           D7
E---0--0--0--0--0--0--0--0-----------------------------------------|
H-13-13-13-13-10-10-10-10------------------------------------------|
G------------------------------------------------------------------|
D------------------------------------------------------------------|
A------------------------------------------------------------------|
E------------------------------------------------------------------|

Verse 1
                  Cmaj7
I miss you so much boy
G/b                     E
 Will we be coming on again
Em                     Am
 Don't ever lose your ropes

C                            G   D
 This man is hanging by the eee-ends
                   Hm
I owe you so much time
C                              Cmaj7     Am
 Yes you may say it isn't like that - at all
               F
But now it's coming back to you
              D7
These open moments that I blew

Chorus
                           Hm
Rocket brothers crack and burst
C                              G
 If they can't meet upon the verge
Am                          Hm
 Of breaking into separate parts
C                             G    D
 That was not written in our caaa-ards
Cmaj7                         G
 Now you've got someone to protect
Cmaj7                 G   Cmaj7 (break)
 Someone you cannot reject

Verse 2
                   Cmaj7
I miss you so much boy
G/b                        E
 But I was buried in the mines
Em                      Am
 I've found it hard to stop
C                              G    D
 You've found me very hard to fiii-ind
                         Hm
But now that you've made way
C                                       Am
 I'd better tie together these ropes - again
                F
And throw the times right back to you
               D7
And all the chances that I blew

Chorus
                           Hm
Rocket brothers crack and burst
C                              G
 If they can't meet upon the verge
Am                          Hm
 Of breaking into separate parts
C                             G    D
 That was not written in our caaa-ards
                              Hm
Those rocket brothers on the verge
C                                      G
 We should be careful cause it could burst
Am                     Hm
 Now were not lonely anymore
C                     G    D
 Lonely as we were befooo-ore
Cmaj7                          G
 And now there's someone to protect
Cmaj7                 G
 Someone you cannot reject
Cmaj7                    G
 Something I will not neglect
Cmaj7
No

Kommentar

Log ind eller opret en bruger, for at skrive en kommentar


Kontakt os • Hvis du oplever nogen problemer, finder fejl eller har forslag. Copyright 2007 - 2018