Log ind         eller        Opret en gratis konto
 
  Tilbage

Musicmate.dk | Lenny Kravitz - Always On The Run Guitar Tabs/Fingerspil

Lenny Kravitz - Always On The Run

Guitar Tabs/Fingerspil
         Slå akkorder op    Print sang  Se forfatter 


Lenny Kravitz - Always On The Run
Skide fedt funk/rock nummer, det er iøvrigt også fedt spille i band.

først har vi intro kun med Lead guitar hvor han spiller melodien her under igennem en gang.
hvorefter der kommer en guitar mere på samt trommer og alt andet hvad man nu har lyst til at 
8.dels på hi-hat.

_!1___2___3___4___5___6___7___8____1___2___3___4___5___6___7___8___!
Intro. af lead-guitaren
E|0-------------------------------|0-----------------------5-3--------|
A|----7---5-4---5-----5----7---|----7---5-4---5-----5-4-----5-7-|
D|------------------5-------------|------------------5-----------------|
G|--------------------------------|-------------------------------------|
H|--------------------------------|-------------------------------------|
e|--------------------------------|-------------------------------------|


_!1___2___3___4___5___6___7___8____1___2___3___4___5___6___7___8___!
Funk Guitar
E|--------------------------------|--------------------------------|
A|------------5---7-----------7---|------------5---7---------------|
D|----5---7-------------5---------|----5---7-------------------11-#|
G|--------------------------------|----------------------------10-#|
H|--------------------------------|----------------------------11-#|
e|--------------------------------|----------------------------11-#|
___________________________________________/\Slide alle tonerne en halv
___________________________________________ tone op, derfor har jeg 
___________________________________________  insat Tegnet (#)


OMKV.
Makeringer med Barregreb 
G---G-dæmpe-A---A og så spilles der en takt. intro med fuld orkester.
og så gentages det.
_____________________________________________________________________________________________

SOLO.
Under soloen pumper alle i samme akkord.
så det siger først
Det hele skal spilles i Am Og Em men det kunne jeg ikke indsætte.
_!1___2___3___4___5___6___7___8___1___2___3___4___5___6___7___8___!

--A-A-A-A-A-A-A-A-A-A-A-A-A-A-A-A-A-A-A-A-A-A-A-A-A-A-A-A-A-A-A-A-A- Am!!!

og lige bagefter
_!1___2___3___4___5___6___7___8___1___2___3___4___5___6___7___8___!

--E-E-E-E-E-E-E-E-E-E-E-E-E-E-E-E-E-E-E-E-E-E-E-E-E-E-E-E-E-E-E-E-E- Em!!!
 _____________________________________________________________________________________________

Form

INTRO ( LEAD GUITAR ALLENDE) 2 takter.

INTRO ( ALLE instrumenter ) 2 takter.

Vers ( Alle instrumenter ) 10 takter.

Omkv (alle) 4 takter

Intro (alle) 2 takter

Vers (alle) 10 takter

Omkv (alle) 4 takter

Solo pentaton-skala i først i A 2 takter og så i E to takter.

intro (alle) 2 takter

Vers (alle) 10 takter

Omkv. (alle)

Intro (Lead guitar allende)
_________________________________________________________________________

Jeg håber det kan bruges.
Hvis i spiller i band så går bassen på samme måde som funk guitaren.

Kontakt mig hvis du har spørgsmål -LarsPoulsen-, 16 år.

Kommentar

Log ind eller opret en bruger, for at skrive en kommentar


Kontakt os • Hvis du oplever nogen problemer, finder fejl eller har forslag. Copyright 2007 - 2018