Log ind         eller        Opret en gratis konto
 
  Tilbage

Musicmate.dk | Thomas Buttenschøn - Fantastiske mandag Guitar Akkorder

Thomas Buttenschøn - Fantastiske mandag

Guitar Akkorder
         Slå akkorder op    Print sang  Se forfatter 


Tuning: EADGbe
Mute all the strings at "x".
  Am                  Dm                  G              C        C/H
e|-----------0-----x--------------1----x-----------3--x----------------------|
B|-----------1-----x-----------3--3----x-----------3--x-------1--------1-----|
G|--------2--------x--------2----------x--------0-----x-------0--------0-----|
D|-----2-----------x-----0-------------x------0-------x-----2--------0-------|
A|--0--------------x-------------------x--------------x---3--------2---------|
E|-----------------x-------------------x---3----------x----------------------|
                Jeg går... Hjemad            14.30, ja jeg er fri som en fugl
  Am                  Dm                  G             
e|-----------0-----x--------------1----|
B|-----------1-----x-----------3--3----|
G|--------2--------x--------2----------|
D|-----2-----------x-----0-------------|
A|--0--------------x-------------------|
E|-----------------x-------------------|
        Går forbi en lille landsbyskole

E            E7                   E[Strum once and let ring]
Og børnene leger sødt der, selvom
                  [The chord's sound should stop around here]
Sneen er lidt gul - men jeg... 3, 4

Am
Siger ingenting - næ
Dm
 Jeg går videre

Ser et kær'stepar
C             C/H
Hør hvordan de kvidrer
Am                Dm
Som to forelskede gråspurve
E             E7
Det er på en kold dag
E
Det er på en vinterdag




Chorus:
Am
For der er min dag
            E7
Godt nok en kold dag
    Dm
Og asfalten er tør og kold
       G 
Det er mandag
Am
Det er min dag
            E7
Godt nok en vinter dag
    Dm
Og vinter solen kigger frem
   G                               Am
På denne helt fantastiske mandag
E7             Dm
Fantastiske mandag



Verse:
Am                      Dm
Traver videre langs med vejen

Hopper over stregerne, du
C         C/H
kender måske legen
Am                     Dm
Jeg vil danse gennem tilværelsen
E                  E7
Og nyde jeg har glemt
E
Nyde jeg har glemt dem
    Am                      Dm
Der kastede flere sten på min grusvej

Nyde at de har glemt
         C                C/H
Fordi, selvfølgelig har de da glemt mig
Am                 Dm
De har glemt mig, de har glemt mig
E          E7          E
En gang til, og en gang til, og



Chorus:
Am
For der er min dag
            E7
Godt nok en kold dag
    Dm
Og asfalten er tør og kold
       G 
Det er mandag
Am
Det er min dag
            E7
Godt nok en vinter dag
    Dm
Og vinter solen kigger frem
   G                               Am
På denne helt fantastiske mandag
E7             Dm
Fantastiske mandag



Bridge (Not quite sure about this part):
E
Og når jeg så kommer hjem
E
Sætter mig ned
E
Glemmer hvem, hvad, hvor, hvorfor, hvordan og hvornår
E
Og glemmer tid og sted
E
Og pludselig så slår det mig
E
Og jeg tager min tlf.
E
Og siger jeg stadig elsker dig



Chorus:

For det er...

  Am                 E7             Dm                 G           
e|-----------0-----x--------------x-----------1----x-----------3--|
B|-----------1-----x-------0------x--------3--3----x-----------3--|
G|--------2--------x-------1------x-----2----------x--------0-----|
D|-----2-----------x-----0--------x--0-------------x------0-------|
A|--0--------------x---2----------x----------------x--------------|
E|-----------------x-0------------x----------------x---3----------|
  min dag     godt nok en kold dag  Og asfalten er   mandag
                                     tør og kold,
                                       det er    

Ja det er..

  Am                 E7             Dm                 G           
e|-----------0-----x--------------x-----------1----x-----------3--|
B|-----------1-----x-------0------x--------3--3----x-----------3--|
G|--------2--------x-------1------x-----2----------x--------0-----|
D|-----2-----------x-----0--------x--0-------------x------0-------|
A|--0--------------x---2----------x----------------x--------------|
E|-----------------x-0------------x----------------x---3----------|
  min dag     godt nok en vinterdag Og vintersolen   denne helt
                                    kigger frem på   fantastiske...
 
Am
Mandag
            E7
Godt nok en kold dag
    Dm
Og asfalten er tør og kold
       G 
Det er mandag
Am
Det er min dag
            E7
Godt nok en vinter dag
    Dm
Og vinter solen kigger frem
   G                               Am
På denne helt fantastiske mandag
E7             Dm
Fantastiske mandag 

Kommentar

Log ind eller opret en bruger, for at skrive en kommentar


Kontakt os • Hvis du oplever nogen problemer, finder fejl eller har forslag. Copyright 2007 - 2018