Log ind         eller        Opret en gratis konto
 
  Tilbage

Musicmate.dk | Ramones - Blitzkrieg Bop Guitar Tabs/Fingerspil

Ramones - Blitzkrieg Bop

Guitar Tabs/Fingerspil
         Slå akkorder op    Print sang  Se forfatter 


Ramones - Blitzkrieg Bop


INTRO:
---------------------------------    -------------------------
---------------------------------    -------------------------
---------------------------------    -------------------------
-----------------7-7-7-7-9-9-9-9-    -----7-7-----------------
-7-7-7-7-7-7-7-7-5-5-5-5-7-7-7-7-    -7-7-5-5-7-7-7-7-7-7-7-7-
-5-5-5-5-5-5-5-5----------------- x3 -5-5-----5-5-5-5-5-5-5-5-i alt skal det gentages 2 gange

BRIDGE:
Hey, Ho, Let's Go
Hey, Ho, Let's Go
Hey, Ho, Let's Go (bass star)
-------------------------------
-------------------------------
-------------------------------
-------------------------------
-------------------------------
-5-5-5-5-5-5-5-5-5-5-5-5-5-5-5-
Hey, Ho, Let's Go (guitar her)
---------------------------------
---------------------------------
---------------------------------
---------------------------------
-7-7-7-7-7-7-7-7-7-7-7-7-7-7-7-7-
-5-5-5-5-5-5-5-5-5-5-5-5-5-5-5-5-

VERSES:
---------------------------------    -------------------------
---------------------------------    -------------------------
---------------------------------    -------------------------
-----------------7-7-7-7-9-9-9-9-    -----7-7-----------------
-7-7-7-7-7-7-7-7-5-5-5-5-7-7-7-7-    -7-7-5-5-7-7-7-7-7-7-7-7-
-5-5-5-5-5-5-5-5----------------- x3 -5-5-----5-5-5-5-5-5-5-5- x2

CHORUSES
-----------------------------    -----------------------------
-----------------------------    -----------------------------
-----------------------------    -----------------------------
-7-7-7-7-7-7-7-7---------7---    -7-7-7-7-7-7-7-7-5-5-5-5-----
-5-5-5-5-5-5-5-5-7-7-7-7-5-7-    -5-5-5-5-5-5-5-5-3-3-3-3-7-9-
-----------------5-5-5-5---5-    -------------------------5-7-

VERSES:
---------------------------------    -------------------------
---------------------------------    -------------------------
---------------------------------    -------------------------
-----------------7-7-7-7-9-9-9-9-    ------7-7----------------
-7-7-7-7-7-7-7-7-5-5-5-5-7-7-7-7-    -7-7-5-5-7-7-7-7-7-7-7-7-
-5-5-5-5-5-5-5-5----------------- x3 -5-5-----5-5-5-5-5-5-5-5- x2

CHORUSES
-----------------------------    -----------------------------
-----------------------------    -----------------------------
-----------------------------    -----------------------------
-7-7-7-7-7-7-7-7---------7---    -7-7-7-7-7-7-7-7-5-5-5-5-----
-5-5-5-5-5-5-5-5-7-7-7-7-5-7-    -5-5-5-5-5-5-5-5-3-3-3-3-7-9-
-----------------5-5-5-5---5-    -------------------------5-7-

VERSES:
---------------------------------    -------------------------
---------------------------------    -------------------------
---------------------------------    -------------------------
-----------------7-7-7-7-9-9-9-9-    ------7-7----------------
-7-7-7-7-7-7-7-7-5-5-5-5-7-7-7-7-    -7-7-5-5-7-7-7-7-7-7-7-7-
-5-5-5-5-5-5-5-5----------------- x3 -5-5-----5-5-5-5-5-5-5-5- x2

BRIDGE:
---------------------------------------------------------------
---------------------------------------------------------------
---------------------------------------------------------------
---------------------------------------------------------------
-------------------------------7-7-7-7-7-7-7-7-7-7-7-7-7-7-7-7-
-5-5-5-5-5-5-5-5-5-5-5-5-5-5-5-5-5-5-5-5-5-5-5-5-5-5-5-5-5-5-5-

Kommentar

Log ind eller opret en bruger, for at skrive en kommentar


Kontakt os • Hvis du oplever nogen problemer, finder fejl eller har forslag. Copyright 2007 - 2018