Log ind         eller        Opret en gratis konto
 
  Tilbage

Musicmate.dk | jimi hendrix - fire Guitar Tabs/Fingerspil

jimi hendrix - fire

Guitar Tabs/Fingerspil
         Slå akkorder op    Print sang  Se forfatter 


her er fire med jimi hendrix

det er skal du for du kunne for du begynder


----------------        ------------
----------------        ------------
----------------        ------------
--8-7-5-7-------        ------------
----------7-7---        ---5-6-7----
----------------  X2    --7---------


spil det her ind til omg

----------
----------
----------
----------
---5-6-7--
-7--------

der skal du spille det her

--------------------------------
-----8-8-8-8--------------------
-----7-7-7-7--------------------
-----6-6-6-6--x-x--5-5/7-7-7----
-----7-7-7-7--x-x--5-5/7-7-7----
---0----------x-x--3-3/5-5-5----x2

og tilbage igen

her er et link til sangen

http://www.radioblogclub.com/open/97085/jimi_hendrix/Jimi%20Hendrix%20-%20Fire



Kommentar

Log ind eller opret en bruger, for at skrive en kommentar


Kontakt os • Hvis du oplever nogen problemer, finder fejl eller har forslag. Copyright 2007 - 2018