Log ind         eller        Opret en gratis konto
 
  Tilbage

Musicmate.dk | Santana - Europa/Europe. Guitar Tabs/Fingerspil

Santana - Europa/Europe.

Guitar Tabs/Fingerspil
         Slå akkorder op    Print sang  Se forfatter 


Santana "Carlos Santana".

Dette guitar spil er meget svær, og derfor skal man være ret øvet og kende til melodien. Der er ingen sang kun instrument spil, men i et band skal guitaren være højest da det er første privotet i dette nummer.
Dette er også den helt korekte måde santana spiller den i.

e-----8-10-11-10--8---|-------------------|--------8-10-8---------|----------|
B---8---------------11|---9---------------|----9-11----------11---|-8--------|
G---------------------|-------------------|---------------------10|----------|
D---------------------|-------------------|-----------------------|----------|
A---------------------|-------------------|-----------------------|----------|
E---------------------|-------------------|-----------------------|----------|


e----------8---------|--------------------|--------------------------|--------|
B----8-9-11--8---9-8-|--------------------|-----8-9-11-9--------8----|--------|
G--------------------|-10-----------------|--10-------------------10-|--8-----|
D--------------------|--------------------|--------------------------|--------|
A--------------------|--------------------|--------------------------|--------|
E--------------------|--------------------|--------------------------|--------|


e-----8-10-11-10--8---|-------------------|--------8-10-8---------|----------|
B---8---------------11|---9---------------|----9-11----------11---|-8--------|
G---------------------|-------------------|---------------------10|----------|
D---------------------|-------------------|-----------------------|----------|
A---------------------|-------------------|-----------------------|----------|
E---------------------|-------------------|-----------------------|----------|


e----------8---------|--------------------|--------------------------|--------|
B----8-9-11--8---9-8-|--------------------|-----8-9-11-9--------8----|--8-----|
G--------------------|-10-----------------|--10-------------------10-|--------|
D--------------------|--------------------|--------------------------|--------|
A--------------------|--------------------|--------------------------|--------|
E--------------------|--------------------|--------------------------|--------|


e------------15------|--15-----------13-11|-13------------------------|-13--15|
B--------13----------|--------------------|-----------------------15--|-------|
G----12--------------|--------------------|-----------------12-15-----|-------|
D--------------------|--------------------|---------------------------|-------|
A--------------------|--------------------|---------------------------|-------|
E--------------------|--------------------|---------------------------|-------|


e---------------13-11|----13---11--10-----|-13----11-8-------------|---------|
B--------------------|--------------------|-----------11-8-8-------|-8-------|
G--------------------|--------------------|-----------------10-8---|---8-----|
D--------------------|--------------------|----------------------10|-----10--|
A--------------------|--------------------|------------------------|---------|
E--------------------|--------------------|------------------------|---------|



e------------------|-------------------|------------------------|-------------|
B------------------|------8--------8---|---8--------------------|---11--8-11--|
G---------7---8----|--/10------/10-----|10------------10--8-10-8|/12----------|
D-----10-----------|---------8--------8|------------8-----------|-------------|
A------------------|-------------------|------------------------|------8-----8|
E------------------|-------------------|------------------------|-------------|



e-----------------------|------------------------|-----8--------------------|
B---11----13-11---8-----|-----8------------8-----|---8---11-8------------8--|
G-12---10-----------10-8|---10----------10-------|-10---------11-10-8--10-8-|
D-----------------------|-------------10-------10|-------------------10-----|
A-----------------------|------------------------|--------------------------|
E-----------------------|------------------------|--------------------------|


e------------------------|---8----------------------|
B------------------------|---8----------------------|
G------------------------|---8--------7-----8-------|
D--10--------------------|--------10----------------|
A------------------------|--------------------------|
E------------------------|--------------------------|


------------------|-------------------|------------------------|-------------|
B------------------|------8--------8---|---8--------------------|---11--8-11--|
G---------7---8----|--/10------/10-----|10------------10--8-10-8|/12----------|
D-----10-----------|---------8--------8|------------8-----------|-------------|
A------------------|-------------------|------------------------|------8-----8|
E------------------|-------------------|------------------------|-------------|



e-----------------------|------------------------|-----8--------------------|
B---11----13-11---8-----|-----8------------8-----|---8---11-8------------8--|
G-12---10-----------10-8|---10----------10-------|-10---------11-10-8--10-8-|
D-----------------------|-------------10-------10|-------------------10-----|
A-----------------------|------------------------|--------------------------|
E-----------------------|------------------------|--------------------------|


e----------------------------------|----------------15--------|
B--8-------------------------------|---13------13-------------|
G----------------------12-14--12-14|-------12-----------------|
D-------------10-12-14-------------|--------------------------|
A--------10-12---------------------|--------------------------|
E----------------------------------|--------------------------|


e--15---------------------13--11---|----13------------------|-13--------15--|
B----------------------------------|---------------------15-|---------------|
G----------------------------------|--------------12--15----|---------------|
D----------------------------------|------------------------|---------------|
A----------------------------------|------------------------|---------------|
E----------------------------------|------------------------|---------------|


e-----------------------13--------|--13----------------------|
B----------------------------16---|-------------16-15--------|
G---------------------------------|--------------------------|
D---------------------------------|--------------------------|
A---------------------------------|--------------------------|
E---------------------------------|--------------------------|


e----13--------11-8---------------|
B-------------------11-8-8--------|
G--------------------------10-8---|
D-------------------------------10|
A---------------------------------|
E---------------------------------|



 Brug en skala ----->>> e--11-8---------------| For at få det samme 
                                     B-------11-8-8--------| lyd som santana spiller det i.
                                     G--------------10-8---|
                                     D-------------------10|
                                     A---------------------|
                                     E---------------------|

Kommentar

Log ind eller opret en bruger, for at skrive en kommentar


Kontakt os • Hvis du oplever nogen problemer, finder fejl eller har forslag. Copyright 2007 - 2018