Log ind         eller        Opret en gratis konto
 
  Tilbage

Musicmate.dk | bryan adams - run to you Guitar Tabs/Fingerspil

bryan adams - run to you

Guitar Tabs/Fingerspil
         Slå akkorder op    Print sang  Se forfatter 


capo i 2. bånd. 2 læses som løs streng.
I detten nummer bruges der overdrive. og i c-stykket bliver der også brugt kompresser. 

Intro (følger verset):
e----------------------------------
b----------------------------------
g----------------------------------
d-----2-----2---------2-------2----
a---3-----3---3-----4-------6---6--
E-2-----2-------2-5-----5/7-------7

B-stykket:
(C)cuz when it gets to much (D)i need to feel your tuch

omkvæd:
e-5-5--5-5----------
b-5-5--5-5--5-5-----
g-2-2--2-2--4-4--4-4
d-4-4--2-2--2-2--4-4
a-4-4--x-x-------2-2
E-2-2--5-5----------

C-Stykket:
                                          X2
e---------------------------------------
b--12-11-------10-9-----8-7-----10-9----
g--------11---------9-------7--------9--
d-----------11--------9-------7--------9
a---------------------------------------
E---------------------------------------


hyg jer med den. jeg er 100% sikker på at den er korrekt! 
(af Dennis F)

Kommentar

Log ind eller opret en bruger, for at skrive en kommentar


Kontakt os • Hvis du oplever nogen problemer, finder fejl eller har forslag. Copyright 2007 - 2018