Log ind         eller        Opret en gratis konto
 
  Tilbage

Musicmate.dk | Metalica - The god that failed Bass Tabs/Fingerspil

Metalica - The god that failed

Bass Tabs/Fingerspil
         Slå akkorder op    Print sang  Se forfatter 


Tune down 1/2 step
  Intro

Gb|-------------------------------|-------------------------------|
Db|-------------------------------|-------------------------------|
Ab|-------------------------------|-------------------------------|
Eb|--3--3--0--0--0--7--7--0--0--0-|--3--3--0--7--0--3--3--0--5--0-|


Gb|-------------------------------|-------------------------------|
Db|-------------------------------|-------------------------------|
Ab|-----------------5--5--7-------|-------------------------------|
Eb|--3--3--0--0--0-----------0--0-|--3--3--0--7--0--3--3--0--5--0-|


Gb|-------------------------------|-------------------------------|
Db|-------------------------------|-------------------------------|
Ab|-------------------------------|-------------------------------|
Eb|--3--3--0--0--0--7--7--0--0--0-|--3--3--0--7--0--3--3--0--5--0-|


Gb|-------------------------------|-------------------------------|
Db|-------------------------------|-------------------------------|
Ab|-----------------5--5--7-------|-------------------------------|
Eb|--3--3--0--0--0-----------0--0-|--3--3--0--7--0--3--3--0--5--0-|


Gb|-------------------------------|-------------------------------|
Db|-------------------------------|-------------------------------|
Ab|-------------------------------|-------------------------------|
Eb|--3--3--0--0--0--7--7--0--0--0-|--3--3--0--7--0--3--3--0--5--0-|


Gb|-------------------------------|---------------------------------|
Db|-------------------------------|---------------------------------|
Ab|-----------------5--5--7-------|---------------------------------|
Eb|--3--3--0--0--0-----------0--0-|--3--3--0--7--0--0--(rest)--5--3-|


Gb|-------------------------------|-------------------------------|
Db|-------------------------------|-------------------------------|
Ab|-------------------------------|-------------------------------|
Eb|--2--0--0--0--0--1--0--0--0--0-|--1--0--0--3--0--1--0--0--0--0-|


Gb|-------------------------------||
Db|-------------------------------||
Ab|-------------------------------||
Eb|--1--0--0--3--0--1--0--0--0--0-||


  1st, 2nd verses  (this whole part + the chorus is repeated)
Gb|-------------------------------|-------------------------------|
Db|-------------------------------|-------------------------------|
Ab|-------------------------------|-------------------------------|
Eb|--1--0--0--0--0--1--0--0--0--0-|--1--0--0--3--0--1--0--0--0--0-|


Gb|-------------------------------|-------------------------------|
Db|-------------------------------|-------------------------------|
Ab|-------------------------------|-------------------------------|
Eb|--1--0--0--0--0--1--0--0--0--0-|--1--0--0--3--0--0--1--1--1--1-|


Gb|-------------------------------|---------------------------------|
Db|-------------------------------|---------------------------------|
Ab|-------------------------------|---------------------------------|
Eb|--1--0--1--1--1--1--0--1--1--1-|--1--0--1/3--0--3--0--1--1--1--1-|


Gb|-------------------------------|------------------------------------------|
Db|-------------------------------|------------------------------------------|
Ab|-------------------------------|------------------------------------------|
Eb|--1--0--1--1--1--1--0--1--1--1-|--1--0--1/3--0--3--3--0--0--0--0--0--0--0-|


Gb|--------------------------------|-------------------------------||
Db|--------------------------------|-------------------------------||
Ab|--------------------------------|-------------------------------||
Eb|--3--3--0--0--0---7--7--0--0--0-|--3--3--0--7--0--3--3--0--5--0-||


  Chorus
Gb|-------------------------------------|----------------------|
Db|-------------------------------------|----------------------|
Ab|-------------------------------------|----------------------|
Eb|--3--0--0--0--0--0--0--0--0--0--0--0-|--0--0--0--3--3--3--3-|


Gb|-------------------------------------|----------------------|
Db|-------------------------------------|----------------------|
Ab|-------------------------------------|----------------------|
Eb|--7--7--7--7--7--7--7--7--7--7--7--7-|--7--7--7--5--5--5--5-|


Gb|-------------------------------------|----------------------|
Db|-------------------------------------|----------------------|
Ab|-------------------------------------|----------------------|
Eb|--3--0--0--0--0--0--0--0--0--0--0--0-|--0--0--0--3--3--3--3-|


Gb|------------------------------------------------|--------------------------------------------|
Db|------------------------------------------------|--------------------------------------------|
Ab|------------------------------------------------|--------------------------------------------|
Eb|-7--7--7--7--7--7--7--7--7--7--7--7--7--7--7--7-|--7--7--7--7--7--7--7--7--7--7--7--7--5--7--|

 1.______________________________________________________________________________
Gb|--------------|-------------------------------|-------------------------------|
Db|--------------|-------------------------------|-------------------------------|
Ab|--------------|-------------------------------|-------------------------------|
Eb|--3-----------|--3--3--0--0--0--7--7--0--0--0-|--3--3--0--7--0--3--3--0--5--0-|

_____________________________________________________________
Gb|-------------------------------|-------------------------|
Db|-------------------------------|-------------------------|
Ab|-----------------5--5--7-------|-------------------------|
Eb|--3--3--0--0--0-----------0--0-|--3--3--0--7--0--0--5--3-|


  2._____________
Gb|-------------|-------------------------------------|--------------------------------------|
Db|-------------|-------------------------------------|--------------------------------------|
Ab|-------------|-------------------------------------|--------------------------------------|
Eb|--3----------|--0--0--0--0--0--0--0--0--0--0--0--5-|--7--7--7--7--7--7--7--78/7--7--7--5--|


  Guitar Solo
Gb|-------------------------------|-------------------------------|
Db|-------------------------------|-------------------------------|
Ab|-------------------------------|-------------------------------|
Eb|--3--3--0--0--0--7--7--0--0--0-|--3--3--0--7--0--3--3--0--5--0-|


Gb|----------------------------------------------|-----------------------------------------------|
Db|--------------------------------------------5-|-----------------------------------------------|
Ab|--------------------------------5--5--7--7----|-----------------------------------------------|
Eb|--3--3--0--0--3--3--5--5--7--7----------------|--7--7--0--7--7--7--7/87--5--3--2--3--3--2--0--|


Gb|-----------------------------|------------------------------------|
Db|-----------------------------|------------------------------------|
Ab|-----------------------------|------------------------------------|
Eb|--3--0--0--12--7--7--0--12-|--3--3--0--7--0--3--3--0--5--0--0-----|


Gb|-------------------------------------|--------------------------------|
Db|-------------------------------------|--------------------------------|
Ab|-------------------------------------|--------------------------------|
Eb|--3--3--3--5--7--5--3--3--3--5--7--5-|--7--7--8--10--8--7--7--7--7--5-|


Gb|-----------------------------|---------------------------------|
Db|-----------------------------|---------------------------------|
Ab|-----------------------------|---------------------------------|
Eb|--3--3--0--12--7--0--0--12-|--3--0--0--7--0--3--3--0--5--0-----|


Gb|----------------------------------|-------------------------------|
Db|----------------------------------|-------------------------------|
Ab|----------------------------------|-------------------------------|
Eb|--3--3--3--0--3--3--0--3--3--0--3-|--7--7--7--7/87--7--7--7--7----|


   (hammer on-pull off)
Gb|----------------------------------------------------------|--------------------------------|
Db|--4(h)5(p)4--------------------4(h)5(p)4------------------|--------------------------------|
Ab|-------------7--5--42--------------------7--5--42-------|----------------------------------|
Eb|------------------------5--3-------------------------5--3-|--2--0--0--0--0--1--0--0--0--0--|


Gb|------------------------------------|---------------------------------|
Db|------------------------------------|---------------------------------|
Ab|------------------------------------|---------------------------------|
Eb|--1--0--0--3--0--1--0--0--0--0--12-|--1--0--0--0--0--1--0--0--0--0----|


Gb|-------------------|------------------------------||
Db|-------------------|------------------------------||
Ab|-------------------|------------------------------||
Eb|--1--0--0--3--0--0-|--(0)--3--0--0--0--3--0--0--0-||

Kommentar

Log ind eller opret en bruger, for at skrive en kommentar


Kontakt os • Hvis du oplever nogen problemer, finder fejl eller har forslag. Copyright 2007 - 2018