Log ind         eller        Opret en gratis konto
 
  Tilbage

Musicmate.dk | Metalica - Nothing else matters Bass Tabs/Fingerspil

Metalica - Nothing else matters

Bass Tabs/Fingerspil
         Slå akkorder op    Print sang  Se forfatter 


nothing else matters

Bass enters at 1.04
Verse
G-------------------------------------------------------------------------|
D-------------------------------------------------------------------------|
A--5/7--5-3----------5/7--5-3---------5/7--5-3------2-----5/77------------|
E------------3-2-0------------3-2-0------------2-3-----0------3-2-0-------|

Verse Variation (Played At 2:29)
G-----------------------------------------------------------------------|
D-----------------------------------------------------------------------|
A--5/7--5-3----------5/7--5-/--10---------5/7--5-3------2---5/77--------|
E------------3-2-0----------------3-2-0-------------2-3---0-------3-2-0-|

Chorus
G--------------------------------------|
D--------------------------------------|
A--3-0--5~---3-0--5~---3-0--5--5/7-----|
E--------------------------------------|

Interlude (3:07)
G------------------5------9------------------------------------------9-----------------|
D--------9-------------------------------------------------------------9---------------|
A--7-77----7-77-----7-77----7--------------3--33-0-3-5--5-5-5h7-----------7------------|
E0----------------------------75--5-5---5------------------------0--------0---3-2-0----|

Interlude Second Time Round
G------------------5---------9---------------------------5------------7----------------|
D----------9---------------------------------7-----------------------------------------|
A----7-77----7-77-----7-77----7-------7-------------3-3----0-3-5---5-----5----7~-------|
E--0-----------------------------75------5----5---5----------------------------3-2-0---|
-
Play During Solo.Note: You Could Play Open E on the build up at (4:57)
G--------------------------------------------------------------------------|
D--------------------------------------------------------------------------|
A--5/7--5-3----------5/7--5-3---------5/7--5-3------2----------------------|
E------------3-2-0------------3-2-0-------------2-3-----0~-----------------|End

Kommentar

Log ind eller opret en bruger, for at skrive en kommentar


Kontakt os • Hvis du oplever nogen problemer, finder fejl eller har forslag. Copyright 2007 - 2018