Log ind         eller        Opret en gratis konto
 
  Tilbage

Musicmate.dk | Metalica - The unforgiven Bass Tabs/Fingerspil

Metalica - The unforgiven

Bass Tabs/Fingerspil
         Slå akkorder op    Print sang  Se forfatter 


INTRO

|----------------------------------------|---------------------------|
|------------====guitar====--------------|---------------------------|
|----------------------------------------|--0---2-2-3------3------3--|
|----------------------------------------|---------------------------|

|--------------------------------------------------------------------|
|-----------------------------------------------------------3-----3--|
|-3-2---------2-----------0-0-2-----0-------0---2---3----------------|
|-----3-----------0--------------------------------------------------|

|--------------------------------------------------------------------|
|-3-1----------------------------------------------------------------|
|-----2-------2-----------2-----2---0--------------------------------|
|-----------------4---------4----------------------------------------|

VERSE

It's kinda hard to get the right timing with this, so I did this part like
every other person did it, with a Chord sheet. Easier for everyone.


|---|     |---|    |---|    |---|    |---|
|---|     |---|    |---|    |---|    |---|
|---|     |---|    |-5-|    |---|    |-3-|
|-5-| A   |-0-| E  |---| D  |-3-| G  |---| C


A                     E
New blood joins this earth

D               A
And quickly he's subdued

                         E
Through constant pain disgrace

D                      A
The young boy learns their rules

                          E
With time the child draws in

D                 A
This whipping boy done a wrong

                     E
Deprived of all his thoughts

D                   A
the young man struggles on and on

             C            G
He knows a vow unto his own

C               G
That never from this day

     C                 G    E
His will they'll take away.CHORUS
|--------------------------------------------------------------------|
|--------------------------------------------------------------------|
|--------0---2---3-------3------3---3-2---------2-----------0-0-2----|
|---------------------------------------3-----------0----------------|


|--------------------------------------------------------------------|
|-------------------------3-----3---3-1------------------------------|
|-0-------0---2---3---------------------2-------2-----------2---0-2--|
|---------------------------------------------------4---------4------|

|--------------------------------------------------------------------|
|--------------------------------------------------------------------|
|-0-------0---2---3-------3-----3---3-2---------2-----------0-0-2----|
|---------------------------------------3-----------0----------------|


|--------------------------------------------------------------------|
|-------------------------3-----3---3-1------------------------------|
|-0-------0---2---3---------------------2-------2-----------2---0-2--|
|---------------------------------------------------4---------4------|

|---------------------------------|
|---------------------------------|
|-0-------------------------------|
|---------------------------------|

wherever I may roam


    intro (sitar)
G--------------|----------|
D--4:----------|----------|
A--4:----------|----------|
E--------------|----------|


G---------------------------|---------------|
D---------------------------|---------------|
A---------------------------|---7-----------|
E-----------------/12------|---0------------|


G------------|----------------------------|
D------------|----------------------------|
A------------|----------------------------|
E------------|-----(0)--------------------|


G----------------------------|-------------------|
D----------------------------|-------------------|
A----------7-----------------|-------------------|
E----------0-----------------|--------0----------|


G----------------|----------------|-----------------------|
D----------------|----------------|--2:-------------------|
A----------------|----------------|--4:-------------------|
E---0------------|----0-----------|------------(0)--------|


G---------------------|
D---------------------|
A---------------------|
E------5--6--7--8-----|


  bass figure 1
G-------------------------------|----------------------------|
D-------------------------------|----------------------------|
A-------7-----------------------|----------------------------|
E-------0-0--0--0--0--0--0--0---|--0--0--0--0--0--0--1--1----|


G-------------------------|--------------------------|
D-------------------------|--------------------------|
A-------------------------|--------------------------|
E-0--0--0--0--0--0--0--0--|--5--5--6--6--7--7--8--8--|


G--------------------------|--------------------------|
D--------------------------|--------------------------|
A--7-----------------------|--------------------------|
E--0--0--0--0--0--0--0--0--|--0--0--0--0--3--5--1--1--|

                                         end bass fig 1
G--------------------------|--------------------------|
D--------------------------|--------------------------|
A--------------------------|--------------------------|
E--0--0--0--0--0--1--0--0--|--5--5--6--6--7--7--8--8--|


 riff 1
G-----------------------------|--------------------------|
D-----------------------------|--------------------------|
A--5--6--7--8- ---7-----------|--------------------------|
E--------------0--0--0--0--0--|--0--0--0--0--0--0--1--1--|


G------------------------|--------------------------|
D------------------------|--------------------------|
A------------------------|--------------------------|
E--0--0---0--0--0--0--0--|--5--5--6--6--7--7--8--8--|

 bass fill 1 ---|
G------------------|
D------------------|
A--------5---------|
E------------------|


riff 2    let ring                      let ring
G---------------------------------|----------------------------|
D---------------------------------|----------------------------|
A-----------------7-----(7)------|--------------7-----(7)------|
E--------0---------------------0--|--0--0----------------------|


G-------------|------------------------|
D-------------|------------------------|
A-------------|------------------------|
E--1--1----0--|--1--0--1---1--1h3---1--|


  bass figure 2            let ring
G--------------------|-----------------------------|
D--------------------|-----------------------------|
A--------------------|----------------7----(7)-----|
E--0--0--0--0--0--0--|--0---0--0-------------------|

                       end bass fig 2
G---------------------|--------------------|
D---------------------|--------------------|
A---------------------|--------------------|
E--1---1--1--1--1--1--|--1--0--1--1--8-----|


 1st, 2nd verses
G-----------------|-----------------|--------------------|
D-----------------|-----------------|--------------------|
A-----------------|--------------0--|--1--1--1--1--1--1--|
E--0--0--0--0--0--|--0--0--0--3-----|--------------------|


G-----------|-------------------------|-------------------|
D-----------|-------------------------|-------------------|
A--1--1--1--|--0---0---0---0----0--0--|--0--0---0---0--0--|
E-----------|-------------------------|-------------------|


G-----------------------|---------------------|
D-----------------------|---------------------|
A--1----1--1--1---1--1--|--1--1----1----------|
E-----------------------|--------------x---x--|


G----------------------|--------------------|
D----------------------|--------------------|
A----------------------|-----------------0--|
E--0----0----0--0---0--|--0---0---0---3-----|


G-----------------------|-------------------|---------------------|
D-----------------------|-------------------|---------------------|
A--1---1--1--1----1--1--|--1--1---1---1--1--|---------------------|
E-----------------------|-------------------|--3---3--3--3--3--3--|


G--------------------|-----------------------|
D--------------------|-----------------------|
A--------------------|--1--1--1--1--1--1--1--|
E--3---3---3---3--3--|-----------------------|


G--------------|-----------------|
D--------------|-----------------|
A--1--1--1--1--|--1---1---2---3--|
E--------------|-----------------|

  pm------------------------------------------------|
G------------------------|--------------------------|
D------------------------|--------------------------|
A--5--6--7--7--7--8--7--|---------------------------|
E------------------------|--0---0--0--3--5--1--1----|


G------------------------|--------------------------|
D------------------------|--------------------------|
A------------------------|--------------------------|
E--0---0--0--0--1--0--0--|--5--5--6--6--7--7--8--9--|


 bass fig 3
G--------------------------|--------------------------|
D--------------------------|--------------------------|
A--------------------------|--------------------------|
E--1--1--1--1--1--1--1--1--|--1--1--1--1--1--3--1--1--|


G--------------------------|--------------------------|
D--------------------------|--------------------------|
A--------------------------|--------------------------|
E--0--0--0--0--0--0--0--0--|--0--0--0--0--0--0--3--5--|

                                        end bass fig 3
G--------------------------|--------------------------|
D--------------------------|--------------------------|
A--------------------------|--------------------------|
E--6--6--6--6--6--6--6--6--|--6--6--6--6--6--6--6--6--|


  bass fig 4                     end bass fig 4
G--------------------|-------------------------|
D--------------------|-------------------------|
A--------------------|---------------3---------|
E--5--5--3--5--5--3--|--5--5--3---5-----5---0--|

  riff 3
G---------------------|-----------------------|
D---------------------|-----------------------|
A---------------------|-----------------------|
E--3--3--3--3---3--3--|--0--3--0--3--3--3--3--|


 interlude
G--------------------------|-----------------------------|
D--------------------------|-----------------------------|
A--------------------------|-----------------------3-----|
E--0--0--0--0--0--0--0--0--|--0--0--0--0--1--1--0-----1--|


G--------------------------|
D--------------------------|
A--------------------------|
E--0--0--0--0--0--0--0--0--|

                 end inter.
G--------------------------|
D-----------------------1--|
A--------------------------|
E--0--0--0--0---2---3------|

 riff 4
G--------------------------|--------------------------|
D--------------------------|--------------------------|
A--------------------------|--------------------------|
E--0--0--0--0--0--0--0--0--|--0--0--0--0--0--1--3--1--|


G--------------------------|------------------------|
D--------------------------|---------------------1--|
A--------------------------|--7--7------------------|
E--0--0--0--0--0--0--0--0--|--0--0--0--0--2--3------|


  riff 5
G-----|---------------------|---------------------|
D-----|---------------------|---------------------|
A--5--|------------7--------|------------7-----0--|
E-----|--0---0--0-----0--0--|--0---0--0-----3-----|


G-----------------|--------------------|-------------------|
D-----------------|--------------------|-------------------|
A--1--1--1--1--0--|--1--0--1--1--1--1--|-------------------|
E-----------------|--------------------|--3---3---3--3--0--|


G------------------|----------------------|-------------------|
D------------------|----------------------|-------------------|
A---------------0--|--1--1--1--1---1---0--|--1--0--1--1--1p0--|
E--3---3-----3-----|----------------------|-------------------|

             pm---------------------|
G-----------------------------------|
D-----------------------------------|
A--1--1--2--5--6--7--7--7--8--7-----|
E-----------------------------------|


G--------------------------|--------------------------|
D--------------------------|--------------------------|
A--------------------------|--------------------------|
E--0-----0--0--3--5--1--1--|--0-----0--0--3--5--1--1--|


G--------------------------|--------------------------|
D--------------------------|--------------------------|
A--------------------------|--------------------------|
E--0--0--0--0--0--1--0--0--|--5--5--6--6--7--7--8--8--|


       bass fill 2
G-----|---------------|
D-----|---------------|
A--5--|---------------|
E-----|--3---3--0--3--|


G---|----------------|
D---|----------------|
A---|----------------|
E3--|--3----3--2--1--|

  pre-chorus
G--------------------------|----------------------------|
D--------------------------|----------------------------|
A--------------------------|----------------------------|
E--1--1--1--1--1--1--1--1--|--1----1--1--1--1--1--3--1--|


G--------------------------|-----------------------|
D--------------------------|-----------------------|
A--------------------------|---------------------0-|
E--0--0--0--0--0--0--0--0--|--0--0--0---0--1--3----|


G-------------------------|------|
D-------------------------|------|
A-1--1--1--1--1--1--3--1--|------|
E-------------------------|------|


chorus
G----------------------|------------------------|
D----------------------|------------------------|
A----------------------|---------------3--------|
E--5---5--3--5---5--3--|--5---5--3--5-----5--0--|


G----------------|--------------------------|----------------|
D----------------|--------------------------|----------------|
A----------------|--------------------------|--3---0--3---0--|
E--3---0--3---0--|--0--3--3--0--0--3--0--0--|----------------|


G---------------|--------------------------|--------------------|
D---------------|--------------------------|--------------------|
A--3--3---5--3--|--2--2--2--2--2--2--2--2--|-1--1---1-----------|
E---------------|--------------------------|-----------0--3--1--|


  outro
G--------------------------|--------------------------|
D--------------------------|--------------------------|
A--------------------------|--------------------------|
E--0--0--0--0--0--1--0--0--|--0--0--0--0--3--0--1--1--|


G--------------------------|--------------------------|
D--------------------------|--------------------------|
A--------------------------|--------------------------|
E--0--0--0--0--0--1--0--0--|--5--5--6--6--7--7--8--8--|


bass fig 5
G-----------------------|--------------------------|
D-----------------------|--------------------------|
A--5--6--7--7-----------|--------------------------|
E--------------0--1--0--|--0--0--0--0--3--5--1--1--|


G--------------------------|--------------------------|
D--------------------------|--------------------------|
A--------------------------|--------------------------|
E--0--0--0--0--0--1--0--0--|--5--5--6--6--7--7--8--8--|

Kommentar

Log ind eller opret en bruger, for at skrive en kommentar


Kontakt os • Hvis du oplever nogen problemer, finder fejl eller har forslag. Copyright 2007 - 2018