Log ind         eller        Opret en gratis konto
 
  Tilbage

Musicmate.dk | Metalica - Enter sandman Bass Tabs/Fingerspil

Metalica - Enter sandman

Bass Tabs/Fingerspil
         Slå akkorder op    Print sang  Se forfatter 


Intro
g|----------|
d|--5-------|(x6) u let da guitar play dis twice before u com in
a|-7--------|
e|0--65-----|

g|------------------------------------------------------|
d|----------(x4)------------(x4)---------(x4)-----------|
a|-------/7--------/7-------------/7-----------/7-------|
e|0000000--------00--600001-----00--65001----00--650000-|

g|-|--------------------|-|
d|*|------(x3)----------|*| do dis twice
a|*|-/7-----------------|*|
e|-|0--650----30202/3\20|-|

Verse
g|--------------------------------------------------------------|
d|--------------------------------------------------------------|
a|--------------------------------------------------------------|
e|00000001000000100000030202/3\2000000001000000100000030202/3\20

Pre chorse
g|-2-----|
d|4---4--|(x3)
a|--32---|
e|-----2-|

Chorse
g|-------------------------------|
d|-------------------------------|
a|-432-432-432---432-------------|
e|2---2---2---0-2---0-30202/3\20-|

g|-|--------------------|-|
d|*|------(x3)----------|*| do dis twice
a|*|-/7-----------------|*|
e|-|0--650----30202/3\20|-|

Verse
g|--------------------------------------------------------------|
d|--------------------------------------------------------------|
a|--------------------------------------------------------------|
e|00000001000000100000030202/3\2000000001000000100000030202/3\20

Pre chorse
g|-2-----|
d|4---4--|(x3)
a|--32---|
e|-----2-|

Chorse
g|-------------------------------|
d|-------------------------------|
a|-432-432-432---432-------------|
e|2---2---2---0-2---0-30202/3\20-|

g|-|--------------------|-|
d|*|------(x3)----------|*| do dis 2 da end of da solo
a|*|-/7-----------------|*| then don't play when he goes
e|-|0--650----30202/3\20|-| 'know i lay...' then when it goes
'hush little baby...' do dis

g|------|
d|--5---| till da chorse and i can't be assed 2 tab it out, so just
a|-7----| figure it out its da same sort of ting as the chorse just a
e|0--65-| little different, and the outro is the intro backwards

g|-|--------------------|-|
d|*|------(x3)----------|*| do dis twice
a|*|-/7-----------------|*| just before u com in let da guitar play
e|-|0--650----30202/3\20|-| it twice


g|--------------------------------------|
d|----------(x4)---------(x4)-----------| repeat ito a fade
a|--/7------------/7-----------/7-------|
e|00--650001----00--60001----00--000000-|

Kommentar

Log ind eller opret en bruger, for at skrive en kommentar


Kontakt os • Hvis du oplever nogen problemer, finder fejl eller har forslag. Copyright 2007 - 2018