Log ind         eller        Opret en gratis konto
 
  Tilbage

Musicmate.dk | Guns N' Roses - Don't Cry Guitar Tabs/Fingerspil

Guns N' Roses - Don't Cry

Guitar Tabs/Fingerspil
         Slå akkorder op    Print sang  Se forfatter 


 Am (INTRO) Dm         G            C           Am         Dm         G          Am
-------------------------------------------------------------------------------------
e-----0----|-----1-----|----3------|-----------|-----0----|-----1----|-----3----|-0-|
H------1---|---3--3----|--3--------|--1--1-----|------1---|---3--3---|---3--3---|-1-|
G---2---2--|--2-2--2---|-0-0-------|---0--0----|---2---2--|--2-2--2--|--0-0--0--|-2-|
D--2-2---2-|-0-------0-|-----------|-----------|--2-2---2-|-0------0-|--------0-|-2-|
A-0--------|-----------|-------0-2-|-3--2--3-2-|-0--------|----------|----------|-0-|
E----------|-----------|3-----3----|-----------|----------|----------|-3--------|---|
  Am (VERS)   Dm         G            C            Am          Dm          G
-------------------------------------------------------------------------------------
|  e-----0----|-----1----|-----3------|-----------  |-----0----|-----1----|-----3----|
|**H------1---|---3--3---|---3--------|--1--1-----**|------1---|---3--3---|---3--3---|
| G---2---2--|--2-2--2--|--0-0-------|---0--0----   |---2---2--|--2-2--2--|--0-0--0--|
|  D--2-2---2-|-0------0-|------------|-----------  |--2-2---2-|-0------0-|--------0-|
|**A-0--------|----------|--------0-2-|-3--2--3-2-**|-0--------|----------|----------|
|  E----------|----------|-3-----3----|-----------  |----------|----------|-3--------|
 C   G/h    Am7/g     F(OMK)    G         Am           Am    F         G
-------------------------------------------------------------------------------------
e--0---3---|-0---0---|-1-1-----|-3-3-----|-0---0--0-0-|-0-3-|1--1-----|-3--3-----|
H---1---3--|--1---1--|-1-1-x-x-|-3-3-x-x-|-1---1--1-1-|-1-3-|1--1-x-x-|-3--3-x-x-|
G----0---0-|---2---0-|-2-2-x-x-|-0-0-x-x-|-2---2--2-2-|-2-0-|2--2-x-x-|-0--0-x-x-|
D----------|----2----|-3-3-x-x-|-0-0-x-x-|-2---2--2-2-|-2-0-|3--3-x-x-|-0--0-x-x-|
A-3---2----|---------|-3-3-x-x-|-2-2-x-x-|-0---0--0-0-|---2-|3--3-x-x-|-2--2-x-x-|
E----------|---------|-1-1-----|-3-3-----|------------|---3-|1--1-----|-3--3-----|
  Am         Am/g  F          G          C  G/h  AmAm7/g F      G          Am
------------------------------------------------------------------------------------
e-0--0--0-0-|-0-3-|-1--1-----|-3--3-----|--0--3-|--0-0-|-1-----|-3--3-----|-0-|----|
H-1--1--1-1-|-1-3-|-1--1-x-x-|-3--3-x-x-|--1--3-|--1-1-|-1-x-x-|-3--3-x-x-|-1-|----|
G-2--2--2-2-|-2-0-|-2--2-x-x-|-0--0-x-x-|--0--0-|--2-0-|-2-x-x-|-0--0-x-x-|-2-|----|
D-2--2--2-2-|-2-0-|-3--3-x-x-|-0--0-x-x-|--2--0-|--2-2-|-3-x-x-|-0--0-x-x-|-2-|----|
A-0--0--0-0-|---2-|-3--3-x-x-|-2--2-x-x-|-3--2--|-0----|-3-x-x-|-2--2-x-x-|-0-|----|
E-----------|---3-|-1--1-----|-3--3-----|-------|---3--|-1-----|-3--3-----|---|----|

Kommentar

Log ind eller opret en bruger, for at skrive en kommentar


Kontakt os • Hvis du oplever nogen problemer, finder fejl eller har forslag. Copyright 2007 - 2018