Log ind         eller        Opret en gratis konto
 
  Tilbage

Musicmate.dk | Nirvana - Come As You Are Guitar Akkorder

Nirvana - Come As You Are

Guitar Akkorder
         Slå akkorder op    Print sang  Se forfatter 


Nirvana
Come As You Are

I denne sang er der en første guitarist og en anden guitarist.
Første guitaristen spiller ikke akkorder i versne men et meget let fingerspil.

Fingerspillet=
e--------------------
H--------------------
G--------------------  x8 +2 i introen.
D--------------------
A--------0-0-----2-2-
E-0-0-1-2-2-2-2-1-0--

F#m        E            F#m
Come as you are, as you were,
     E             F#m
As I wan't you to be;
      E            F#m
As a friend, as a friend,
      E   F#m
As an old enemy.
          E
Take your time,
       F#m
Hurry up,
               E
The choise is yours,
          F#m
Don't be late.
        E          F#m
Take a rest, as a friend,
      E     F#m   A
As an old memory-a
    F#m  A
Memory-a,
    F#m  A
Memory-a,
    F#m  A
Memory-a.

F#m            E
Come doused in mud,
          F#m
Soaked in bleach,
     E             F#m
As I wan't you to be;
     E            F#m
As a trend, as a friend,
      E       F#m  A
As an old memory-a
    F#m  A
Memory-a 
    F#m  A
Memory-a 
    F#m  A
Memory-a
H       D           H             D
  And I swear that I don't have a gun.
     H           D         H           D
No I don't have a gun. No I don't have a gun.

Solo--------------------------------
e-----------------------------------
H-----------------------------------
G-6-9-12-6-9-12-6-9-12-12۸۷-12-12-6-  x8 brug kun en finger og løft den ikke, den skal nemlig 
D-----------------------------------    slides ned af strengen.
A-----------------------------------
E-----------------------------------
H       D           H            D
  And I swear that I don't have a gun.
     H           D
No I don't have a gun,
     H           D
No I don't have a gun,
     H           D
No I don't have a gun,
     H           D
No I don't have a gun,
     H           D
No I don't have a gun,
     H           D
No I don't have a gun,

Outro: = intro x4
Slut med
e--------------------------------------------------------------------------------------
H--------------------------------------------------------------------------------------
G--------------------------------------------------------------------------------------
D--------------------------------------------------------------------------------------
A--------0-0-----2-2--------0-0------2-2---------0-0-----2-2--------0-0-----2-2--------
E-0-0-1-2-2-2-2-1-0--0-0-1-2-2-2-2-1-0--0-0-1-2-2-2-2-1-0-0--0-1-2-2-2-2-1-0-0-0-0-1-2-
F#m  E  F#m  E  F#m  E  F#m  E F#m

Kommentar

Log ind eller opret en bruger, for at skrive en kommentar


Kontakt os • Hvis du oplever nogen problemer, finder fejl eller har forslag. Copyright 2007 - 2018