Log ind         eller        Opret en gratis konto
 
  Tilbage

Musicmate.dk | Kim Larsen - Midt Om Natten Guitar Akkorder

Kim Larsen - Midt Om Natten

Guitar Akkorder
         Slå akkorder op    Print sang  Se forfatter 


Midt Om Natten.
Tekst & musik: Kim Larsen.    Betyder lad køre/et slag-----> ﯼ

Dette er den næmmeste måde du kommer på at kunne spille "Midt Om Natten"

Am                    F
Strisserne kom før vi ventede dem
          Am         F
Midt om natten
Am                        F
Så mig og min baby vi var på den igen
          Am         F
Midt om natten
Am                  F
De kylede gas gennem vinduerne
Am                       F
Så tårerne de trillede i stuerne
      ﯼ  
G     G
Åh-ja
          Am        F
Midt om natten
          Am        F
Midt om natten

Am                           F
Det næste der skete tør´ jeg ikke tænke på
          Am        F
Midt om natten
Am                     F
En fyr vi kaldte Spacy tog den ud i det blå
          Am        F
Midt om natten
Am                     F
Han ramte gaden fra en femte sal
Am                           F
Det ikke vores skyld han var bare binde gal
                ﯼ
G               G
Sagde strisserne
          Am       F
Midt om natten
          Am       F
Midt om natten

Am                          F
De lukkede os ud da klokken den var cirka tre
          Am       F
Midt om natten
Am                           F
De sagde gå nu hjem, men vi spurgte hvor er det?
          Am       F
Midt om natten
Am                           F
Nu glæder jeg mig til at jeg bli´r en gammel mand
Am                            F
Så får jeg nok en værelse med lys og med vand
Am                            F
Og der kommer strisserne vel´ næppe på besøg
      ﯼ
G     G
Igen
          Am       F
Midt om natten
          Am       F
Midt om natten

Solo---------------------------------------------

e------------------------------------------------
H------------------------------------------------
G------------------------------------------------
D------------------------------------------------
A------------------------------------5-5-5-5-3-2-
E-5-5-5-5--3-3-3-3--1-1-1-1--0-0-0-0------------5-beat/-5--5-5
                      1 sekund mellem de to første 5´ere ^^
DD G       G
Åh manãna
C        G             D      D
Håber vi får imorgen med
DD G       G
Åh manãna
ﯼ        ﯼ     
C        G             D      D
Håber vi får imorgen med......



Riff 1: |Am|F|<--intro=
e--------------------------
H--------------------------
G--------------------------    x2
D--------------------------
A--------------------------
E-5--0--5--0--5--0--5--1-1-  

Riff 2: Solo=
AAAA GGGG FFFF EEEE DDDD CHAA <--bas akkorder
e-----------------------------------------------------------------------
H-----------------------------------------------------------------------
G-----------------------------------------------------------------------
D-----------------------------------------------------------------------
A--------------------------------5-5-5-5-3-2----------------------------
E-5-5-5-5-3-3-3-3-1-1-1-1-0-0-0-0-----------5-beat-5-beat/5--5-5--5--5-5
         1 sekund mellem de to første 5´ere i de to beat´s ^^      ^^

          ﯼ
Riff 3: G G =
D  C  D  A  C  H  A
۸۷=shuffle/skud strengen ۸=skub op ۷= skub ned.
e--------------
H--------------
G--------------
D--------------
A-5۸۷-3-5-3-2--
E-------5---5--

Kommentar

Log ind eller opret en bruger, for at skrive en kommentar


Kontakt os • Hvis du oplever nogen problemer, finder fejl eller har forslag. Copyright 2007 - 2018