Log ind         eller        Opret en gratis konto
 
  Tilbage

Musicmate.dk | Plain White T's - Hey There Delilah Guitar Tabs/Fingerspil

Plain White T's - Hey There Delilah

Guitar Tabs/Fingerspil
         Slå akkorder op    Print sang  Se forfatter 



Intro
  D   F#m    D     F#m
e-------------------------------------------------------------------|
B---3---3---3---3---2---2---2---2---3---3---3---3---2---2---2---2---|
G---2---2---2---2---2---2---2---2---2---2---2---2---2---2---2---2---|
D-0---0---0---0---4---4---4---4---0---0---0---0---4---4---4---4-----|
A-------------------------------------------------------------------|
E-------------------------------------------------------------------|


Verse 1:
  D   F#m    D     F#m
e-------------------------------------------------------------------|
B---3---3---3---3---2---2---2---2---3---3---3---3---2---2---2-------|
G---2---2---2---2---2---2---2---2---2---2---2---2---2---2---2-------|
D-0---0---0---0---4---4---4---4---0---0---0---0---4---4---4---4-----|
A-------------------------------------------------------------------|
E-------------------------------------------------------------------|

  Bm   G    A    Bm     A      
e-----------------------------------------------------------0---0---|
B---3---3---3-------3---3---2---2---3---3---3---3---2---2---2---2---|
G---4---4---4-------0---0---2---2---4---4---4---4---2---2-----------|
D-------------------------------------------------------------------|
A-2---2---2---0-----------0---0---2---2---2---2---0---0---0---0-----|
E-----------------3---3---------------------------------------------|

  D   F#m    D     F#m
e-------------------------------------------------------------------|
B---3---3---3---3---2---2---2---2---3---3---3---3---2---2---2-------|
G---2---2---2---2---2---2---2---2---2---2---2---2---2---2---2-------|
D-0---0---0---0---4---4---4---4---0---0---0---0---4---4---4---4-----|
A-------------------------------------------------------------------|
E-------------------------------------------------------------------|

  Bm   G    A    Bm     A      
e-----------------------------------------------------------0---0---|
B---3---3---3-------3---3---2---2---3---3---3---3---2---2---2---2---|
G---4---4---4-------0---0---2---2---4---4---4---4---2---2-----------|
D-------------------------------------------------------------------|
A-2---2---2---0-----------0---0---2---2---2---2---0---0---0---0-----|
E-----------------3---3---------------------------------------------|


Chorus
  D   Bm    D      Bm
e-------------------------------------------------------------------|
B---3---3---3-------3---3---3---3---3---3---3--------3---3---3---3--|
G---2---2---2-------4---4---4---4---2---2---2--------4---4---4---4--|
D-0---0---0-----------------------0---0---0-------------------------|
A-------------0---2---2---2---4----------------0---2---2---2---4----|
E-------------------------------------------------------------------|

  D   Bm    D      Bm
e-------------------------------------------------------------------|
B---3---3---3-------3---3---3---3---3---3---3--------3---3---3---3--|
G---2---2---2-------4---4---4---4---2---2---2--------4---4---4---4--|
D-0---0---0-----------------------0---0---0-------------------------|
A-------------0---2---2---2---4----------------0---2---2---2---4----|
E-------------------------------------------------------------------|


Interlude
  D       D/A
e-----------------------|
B---3---3---3---3-------|
G---2---2---2---2-------|
D-0---0---0-------------|
A-------------0---------|
E-----------------------|


Verse 2:
  D   F#m    D     F#m
e-------------------------------------------------------------------|
B---3---3---3---3---2---2---2---2---3---3---3---3---2---2---2-------|
G---2---2---2---2---2---2---2---2---2---2---2---2---2---2---2-------|
D-0---0---0---0---4---4---4---4---0---0---0---0---4---4---4---4-----|
A-------------------------------------------------------------------|
E-------------------------------------------------------------------|

  Bm   G    A    Bm     A      
e-----------------------------------------------------------0---0---|
B---3---3---3-------3---3---2---2---3---3---3---3---2---2---2---2---|
G---4---4---4-------0---0---2---2---4---4---4---4---2---2-----------|
D-------------------------------------------------------------------|
A-2---2---2---0-----------0---0---2---2---2---2---0---0---0---0-----|
E-----------------3---3---------------------------------------------|

  D   F#m    D     F#m
e-------------------------------------------------------------------|
B---3---3---3---3---2---2---2---2---3---3---3---3---2---2---2-------|
G---2---2---2---2---2---2---2---2---2---2---2---2---2---2---2-------|
D-0---0---0---0---4---4---4---4---0---0---0---0---4---4---4---4-----|
A-------------------------------------------------------------------|
E-------------------------------------------------------------------|

  Bm   G    A    Bm     A      
e-----------------------------------------------------------0---0---|
B---3---3---3-------3---3---2---2---3---3---3---3---2---2---2---2---|
G---4---4---4-------0---0---2---2---4---4---4---4---2---2-----------|
D-------------------------------------------------------------------|
A-2---2---2---0-----------0---0---2---2---2---2---0---0---0---0-----|
E-----------------3---3---------------------------------------------|


Chorus
  D   Bm    D      Bm
e-------------------------------------------------------------------|
B---3---3---3-------3---3---3---3---3---3---3--------3---3---3---3--|
G---2---2---2-------4---4---4---4---2---2---2--------4---4---4---4--|
D-0---0---0-----------------------0---0---0-------------------------|
A-------------0---2---2---2---4----------------0---2---2---2---4----|
E-------------------------------------------------------------------|

  D   Bm    D      Bm
e-------------------------------------------------------------------|
B---3---3---3-------3---3---3---3---3---3---3--------3---3---3------|
G---2---2---2-------4---4---4---4---2---2---2--------4---4---4------|
D-0---0---0-----------------------0---0---0-------------------------|
A-------------0---2---2---2---4----------------0---2---2---2---0----|
E-------------------------------------------------------------------|


Bridge
  G    A    D     Bm
e-------------------------------------------------------------------|
B---3---3---3---3---2---2---2---2---3---3---3-------3---3---3-------|
G---0---0---0---0---2---2---2---2---2---2---2-------4---4---4-------|
D---------------------------------0---0---0-------------------------|
A-----------------0---0---0---0---------------0---2---2---2---0-----|
E-3---3---3---3-----------------------------------------------------|

  G    A    D     Bm
e-------------------------------------------------------------------|
B---3---3---3---3---2---2---2---2---3---3---3-------3---3---3-------|
G---0---0---0---0---2---2---2---2---2---2---2-------4---4---4-------|
D---------------------------------0---0---0-------------------------|
A-----------------0---0---0---0---------------4---2---2---2---0-----|
E-3---3---3---3-----------------------------------------------------|

  G    A    Bm
e-------------------------------------------------------------------|
B---3---3---3---3---2---2---2-------3---3---3---3---3---3---3---3---|
G---0---0---0---0---2---2---2-------4---4---4---4---4---4---4---4---|
D-------------------------------------------------------------------|
A-----------------0---0---0---0---2---2---2---2---2---2---2---2-----|
E-3---3---3---3-----------------------------------------------------|

  A    
e-------------------0---0---0---0---|
B---2---2---2---2---2---2---2---2---|
G---2---2---2---2-------------------|
D-----------------------------------|
A-0---0---0---0---0---0---0---0-----|
E-----------------------------------|


Verse 3:
  D   F#m    D     F#m
e-------------------------------------------------------------------|
B---3---3---3---3---2---2---2---2---3---3---3---3---2---2-----------|
G---2---2---2---2---2---2---2---2---2---2---2---2---2---2-----------|
D-0---0---0---0---4---4---4---4---0---0---0---0---4---4---4---------|
A-------------------------------------------------------------------|
E-------------------------------------------------------------------|

  Bm   G    A    Bm     G     A
e-------------------------------------------------------------------|
B---3---3---3-------3---3---2---2---3---3---3-------3---3---2---2---|
G---4---4---4-------0---0---2---2---4---4---4-------0---0---2---2---|
D-------------------------------------------------------------------|
A-2---2---2---0-----------0---0---2---2---2---0-----------0---0-----|
E-----------------3---3---------------------------3---3-------------|

  Bm   G    A    Bm     A      
e-------------------------------------------------------------------|
B---3---3---3-------3---3---2---2---3---3---3---3---2---2---2---2---|
G---4---4---4-------0---0---2---2---4---4---4---4---2---2---2---2---|
D-------------------------------------------------------------------|
A-2---2---2---0-----------0---0---2---2---2---2---0---0---0---0-----|
E-----------------3---3---------------------------------------------|

  A (cont.)
e---0---0---0---0---|
B---2---2---2---2---|
G-------------------|
D-------------------|
A-0---0---0---0-----|
E-------------------|



Chorus
  D   Bm    D     Bm
e-------------------------------------------------------------------|
B---3---3---3-------3---3---3---3---3---3---3-------3---3---3---3---|
G---2---2---2-------4---4---4---4---2---2---2-------4---4---4---4---|
D-0---0---0-----------------------0---0---0-------------------------|
A-------------0---2---2---2---4---------------0---2---2---2---4-----|
E-------------------------------------------------------------------|

  D   Bm    D     Bm
e-------------------------------------------------------------------|
B---3---3---3-------3---3---3---3---3---3---3-------3---3---3---3---|
G---2---2---2-------4---4---4---4---2---2---2-------4---4---4---4---|
D-0---0---0-----------------------0---0---0-------------------------|
A-------------0---2---2---2---4---------------0---2---2---2---4-----|
E-------------------------------------------------------------------|

  D   Bm    D     Bm
e-------------------------------------------------------------------|
B---3---3---3-------3---3---3---3---3---3---3-------3---3---3---3---|
G---2---2---2-------4---4---4---4---2---2---2-------4---4---4---4---|
D-0---0---0-----------------------0---0---0-------------------------|
A-------------0---2---2---2---4---------------0---2---2---2---4-----|
E-------------------------------------------------------------------|

  D   Bm    D     Bm
e-------------------------------------------------------------------|
B---3---3---3-------3---3---3---3---3---3---3-------3---3---3---3---|
G---2---2---2-------4---4---4---4---2---2---2-------4---4---4---4---|
D-0---0---0-----------------------0---0---0-------------------------|
A-------------0---2---2---2---4---------------0---2---2---2---4-----|
E-------------------------------------------------------------------|


Ending
  D   strum
e-----------------2---|
B---3---3---3---3-3---|
G---2---2---2---2-2---|
D-0---0---0-------0---|
A-------------0-------|
E---------------------|

Kommentar

Log ind eller opret en bruger, for at skrive en kommentar


Kontakt os • Hvis du oplever nogen problemer, finder fejl eller har forslag. Copyright 2007 - 2018