Log ind         eller        Opret en gratis konto
 
  Tilbage

Musicmate.dk | Volbeat - Gardens Tale Guitar Tabs/Fingerspil

Volbeat - Gardens Tale

Guitar Tabs/Fingerspil
         Slå akkorder op    Print sang  Se forfatter 


\ = slide down
/ = slide up
. = palm mute
h = hammer on
~ = let ring

[INTRO]

e|----------------------------------------|
B|-5-5-7-9-7-9/10-9--5h7h5-4-2------------|
G|----------------------------------------|
D|----------------------------------------|
A|----------------------------------------|
D|----------------------------------------|

e|----------------------------------------|
B|-5-5-7-9-9-7-9/10-9--5h7h5-4-2----------|
G|-------------------------------3~-------|
D|----------------------------------------|
A|----------------------------------------|
D|----------------------------------------|

e|----------------------------------------|
B|-9-9h10h9-7-5-2----9-9h10h9-7-5---------|
G|----------------3~----------------------|
D|----------------------------------------|
A|----------------------------------------|
D|----------------------------------------|

e|----------------------------------------|
B|-5-5-7-9-9-7-9/10-9--5h7h5-4-2----------|
G|----------------------------------------|
D|----------------------------------------|
A|----------------------------------------|
D|----------------------------------------|

e|----------------------------------------|
B|-5-5-7-9-9-7-9/10-9--5h7h5-4-2----------|
G|-------------------------------3~-------|
D|----------------------------------------|
A|----------------------------------------|
D|----------------------------------------|

e|----------------------------------------|
B|-9-9h10h9-7-5-2-----9-9h10h9-7-5--------|
G|----------------3~----------------------|
D|----------------------------------------|
A|----------------------------------------|
D|----------------------------------------|

e|----------------------------------------|
B|-5-7-9-9-9h10h9-7-5~--------------------|
G|----------------------------------------|
D|----------------------------------------|
A|----------------------------------------|
D|----------------------------------------|

[VERSE]

e|----------------------------------------|
B|----------------------------------------|
G|-55555555555-101010101010-5555555-------|
D|-55555555555-101010101010-5555555-------|
A|-33333333333--8-8-8-8-8-8-3333333-------|
D|----------------------------------------|

e|----------------------------------------|
B|----------------------------------------|
G|---------------55555------55555---------|
D|-777-555-33333-55555-5555-55555---------|
A|-777-555-33333-33333-5555-33333---------|
D|-777-555-33333-------5555---------------|
Play this x2 times

[CHORUS]

e|----------------------------------------|
B|----------------------------------------|
G|---------------55555-10101010-----------|
D|-333333-555555-55555-10101010-----------|
A|-333333-555555-33333--8-8-8-8-----------|
D|-333333-555555--------------------------|

e|----------------------------------------|
B|----------------------------------------|
G|---------------5555555555---------------|
D|-333333-555555-5555555555---------------|
A|-333333-555555-3333333333---------------|
D|-333333-555555--------------------------|
Play this x2 times

[SOLO PART]

e|----------------------------------------|
B|----------------------------------------|
G|----------------------------------------|
D|-777777---------------------------------|
A|-777777-7----5--7--8-8-7---5------------|
D|-777777---77--7--7-------7--------------|
    ...     ..  .  .       .

e|----------------------------------------|
B|----------------------------------------|
G|----------------------------------------|
D|-333333---------------------------------|
A|-333333-3h5-5-5-5-5-5h7-7-7-7h5-3-------|
D|-333333---------------------------------|
    ...
Play this x2 times

[BRIDGE]

e|----------------------------------------|
B|----------------------------------------|
G|---4-7-9/10-9---------------------------|
D|-5--------------------------------------|
A|----------------------------------------|
D|----------------------------------------|

[OUTRO]

e|----------------------------------------|
B|----------------------------------------|
G|---4-7-9/10-9--5~-----------------------|
D|-5-------------5~-----------------------|
A|---------------3~-----------------------|
D|----------------------------------------|

e|----------------------------------------|
B|-5-5-7-9-7-9/10-9--5h7h5-4-2------------|
G|----------------------------------------|
D|----------------------------------------|
A|----------------------------------------|
D|----------------------------------------|

e|----------------------------------------|
B|-5-5-7-9-9-7-9/10-9--5h7h5-4-2----------|
G|-------------------------------3~-------|
D|----------------------------------------|
A|----------------------------------------|
D|----------------------------------------|

e|----------------------------------------|
B|-9-9h10h9-7-5-2----9-9h10h9-7-5---------|
G|----------------3~----------------------|
D|----------------------------------------|
A|----------------------------------------|
D|----------------------------------------|

e|----------------------------------------|
B|-5-7-9-9-9h10h9-7-5~--------------------|
G|----------------------------------------|
D|----------------------------------------|
A|----------------------------------------|
D|----------------------------------------|


+----------------------+
Order to play the song:

1: Intro
2: Verse
3: Chorus
4: Solo part
5: Bridge
6: Verse
7: Chorus
8: Solo part
9: Outro
+----------------------+

Kommentar

Log ind eller opret en bruger, for at skrive en kommentar


Kontakt os • Hvis du oplever nogen problemer, finder fejl eller har forslag. Copyright 2007 - 2018