Log ind         eller        Opret en gratis konto
 
  Tilbage

Musicmate.dk | Johnny Cash - I walk the line Guitar Akkorder

Johnny Cash - I walk the line

Guitar Akkorder
         Slå akkorder op    Print sang  Se forfatter 




|---------------|---------------|---------------|---------------| 
|---------------|---------------|---------------|----3-3-----3-3| 
|---------------|----2-2-----2-2|---------------|----2-2-----2-2| 
|---------------|----2-2-----2-2|---------------|0--------------| 
|---------------|0--------------|0---0---2---4--|--------0------| 
|----0---2---4--|--------0------|---------------|---------------| 
 
 
|---------------|---------------|---------------|---------------| 
|---------------|---------------|---------------|---------------| 
|---------------|----2-2-----2-2|---------------|----1-1-----1-1| 
|0---0----------|----2-2-2---2-2|---------------|----2-2-----2-2| 
|--------4---2--|0--------------|0---0----------|--------2------| 
|---------------|---------------|--------4---2--|0--------------| 
 

|---------------|---------------|---------------|---------------| 
|---------------|---------------|---------------|---------------| 
|---------------|----2-2-----2-2|---------------|----1-1-----1-1| 
|---------------|----1-1-1---1-1|---------------|----2-2-----2-2| 
|2--------------|2--------------|2---0----------|--------2------| 
|----0---2---0--|---------------|--------4---2--|0--------------| 
 

|---------------|---------------|---------------|---------------| 
|---------------|---------------|---------------|---------------| 
|----1-1-----1-1|----1-1-----1-1|----1-1-----1-1|----1-1-----1-1| 
|----2-2-----2-2|----2-2-----2-2|----2-2-----2-1|----2-2-----2-2| 
|--------2------|--------2------|--------2------|--------2------| 
|0--------------|0--------------|0--------------|0--------------|
 
 
 
CAPO 1
 
         B7                           E 
I keep a close watch on this heart of mine 
          B7                      E 
I keep my eyes wide open all the time 
            A                        E 
I keep the ends out for the tie that binds 
               B7               E 
Because you're mine, I walk the line 
 
 

 
          E                     A 
I find it very, very easy to be true 
         E                          A 
I find myself alone when each day's through 
            D                       A 
Yes, I'll admit that I'm a fool for you 
               E                A 
Because you're mine, I walk the line 
 
 

 
 
           A                        D 
As sure as night is dark and day is light 
           A                       D 
I keep you on my mind both day and night 
          G                               D 
And happiness I've known proves that it's right 
               A                D 
Because you're mine, I walk the line 
 
 

 
 
             E                      A 
You've got a way to keep me on your side 
            E                           A 
You give me cause for love that I can't hide 
          D                             A 
For you I know I'd even try to turn the tide 
               E                A 
Because you're mine, I walk the line 
 
 

 
 
         B7                           E 
I keep a close watch on this heart of mine 
          B7                     E 
I keep my eyes wide open all the time 
           A                         E 
I keep the ends out for the tie that binds 
               B7               E 
Because you're mine, I walk the line 
 
 

Kommentar

Log ind eller opret en bruger, for at skrive en kommentar


Kontakt os • Hvis du oplever nogen problemer, finder fejl eller har forslag. Copyright 2007 - 2018