Log ind         eller        Opret en gratis konto
 
  Tilbage

Musicmate.dk | Guns N' Roses - God Father Theme Guitar Tabs/Fingerspil

Guns N' Roses - God Father Theme

Guitar Tabs/Fingerspil
         Slå akkorder op    Print sang  Se forfatter 


 
D#||-----------------------------------|-----------------------------------|
A#||--15----L-14-15-16-15-15-----------|--15----14-15-16-15-15-------------|
F#||--------------------------15~----L-|-----------------------14~----L--L-|
C#||-----------------------------------|-----------------------------------|
G#||-----------------------------------|-----------------------------------|
D#||-----------------------------------|-----------------------------------|

  
-----------------13-------------------|---------------------------------|
--15~----L-14-15----15-14-----L-15br--|----------------14br----L--------|
--------------------------------------|--15--14--15--L-----------14~----|
--------------------------------------|---------------------------------|
--------------------------------------|---------------------------------|
--------------------------------------|---------------------------------|


--------13-12----13----12-------------------|
-----15-------15----15----15----13----------|
--14-------------------------15----14~----L-|
--------------------------------------------|
--------------------------------------------|
--------------------------------------------|

 
--------13-12----13----12---------------------|
-----15-------15----15----15-12-14-13-12~--L--|
--14------------------------------------------|
----------------------------------------------|
----------------------------------------------|
----------------------------------------------|


------------------------------------|----------------------------------------|
------15br--L-------14-15~----L--L--|----------------------------------------|
----x---------14-15-----------------|--14-15-14--15br--14~--L-15--14---------|
--x---------------------------------|---------------------------------15--11-|
------------------------------------|----------------------------------------|
------------------------------------|----------------------------------------|


----------------------------12-----|------------------------------|
-------------15--15--14--13-----13-|--L-10br----9b----9br----8--L-|
-----------------------------------|------------------------------|
--L-12--L--------------------------|------------------------------|
-----------------------------------|------------------------------|
-----------------------------------|------------------------------|


-------------------------------|
--L-10br--L-8----10br----L--L--|
-------------------------------|
-------------------------------|
-------------------------------|
-------------------------------|


---------13p-12-13p-12-------12-13-------13p-12----|
------15---------------15-13-------15-13--------15-|
--14-----------------------------------------------|
---------------------------------------------------|
---------------------------------------------------|
---------------------------------------------------|


--12--------------------------------13p-12-|
-----15-13-15----13--------------15--------|
--------------15----14~----L--14-----------|
-------------------------------------------|
-------------------------------------------|
-------------------------------------------|

  
--13p-12-------12-13----12--------------------|
---------15-13-------15-----13--15------------|
------------------------------------14-13-12~-|
----------------------------------------------|
----------------------------------------------|
----------------------------------------------|

--------------------------------------|---------------------------------|
-----------15br-----------------------|---------------------------------|
--L------x----------------14-15-------|---------------------------------|
-------x---------12--L-15-------14-15-|--14-15br----L-14----------------|
--------------------------------------|---------------------12-15~----L-|
--------------------------------------|---------------------------------|

          
------------------------||
------------------------||
------------------------||
--11~--------12~--------||
------------------------||
------------------------||




Duration Legend
---------------
W - whole
H - half
Q - quarter
E - 8th
S - 16th
T - 32nd
X - 64th
. - note dotted
|-n-|  - n-tuplets


Tablature Legend
----------------
L - tied note
x - dead note
g - grace note
(n) - ghost note
> - accentuded note
NH - natural harmonic
AH - artificial harmonic
TH - tapped harmonic
SH - semi harmonic
PH - pitch harmonic
h - hammer on
p - pull off
b - bend
br - bendRelease
pb - preBend
pbr - preBendRelease
brb - bendReleaseBend
\n/ - tremolo bar dip
\n - tremolo bar dive
-/n - tremolo bar Release up
/n\ - tremolo bar inverted dip
/n - tremolo bar return
-\n - tremolo bar Release down
S - shift slide
s - legato slide
/ -  slide into from below or out of upwards
\ -  slide into from above or out of downwards
~ - vibrato
W - wide vibrato
tr - trill
TP - tremolo picking
T - tapping
S - slap
P - pop
< - fade in
^ - brush up
v - brush down

Kommentar

Log ind eller opret en bruger, for at skrive en kommentar


Kontakt os • Hvis du oplever nogen problemer, finder fejl eller har forslag. Copyright 2007 - 2018