Log ind         eller        Opret en gratis konto
 
  Tilbage

Musicmate.dk | Metallica - Sanitarium (Welcome Home) Guitar Tabs/Fingerspil

Metallica - Sanitarium (Welcome Home)

Guitar Tabs/Fingerspil
         Slå akkorder op    Print sang  Se forfatter 


                            
                           |--3--|                                     
     Q       E     Q    E  S  S  S  E     Q       E     Q    E  E.  S  
E||-------<>12----------3--3h-5p-3p-2--|-------<>12----------2--2---3-|
B||-------------<>12-------0-----------|-------------<>12-------0-----|
G||------------------------------------|------------------------------|
D||------------------------------------|------------------------------|
A||------------------------------------|------------------------------|
E||--0---------------------------------|--0---------------------------|


  H           E     Q    E     H           E     Q    E   
--0--------<>12-------------|-----------<>12-------------|
-----------------<>12----L--|-----------------<>12----L--|
----------------------------|----------------------------|
----------------------------|----------------------------|
----------------------------|----------------------------|
--0-------------------------|--0-------------------------|


  H           E     Q    E     H           E     E     Q     
-----------<>12-------------|-----------<>12----------------|
-----------------<>12----L--|-----------------<>12----------|
----------------------------|-----------------------<>12----|
----------------------------|-------------------------------|
----------------------------|-------------------------------|
--0-------------------------|--0----------------------------|


  E  E  E  E  E  E  E  E     E  E  E  E  E  E  E  T  S.    E  E  T  S. E   
--------------------------|-----------------------------|-----------------|
--------------------------|-----------------------------|-----------------|
-----------0-----------0--|-----------0-----------------|-----------------|
--------4-----------5-----|--------7-----------0--------|-----0--------0--|
-----2-----------3--------|-----5-----------4-----------|--2--------------|
--0-----------0-----------|--0-----------5--------5S-3--|--------3S-5-----|


  E  E  E  E  E  E  E  E     E  E  E  E  E  E  E  T  S.    E  E  T  S. E   
--------------------------|-----------------------------|-----------------|
--------------------------|-----------------------------|-----------------|
-----------0-----------0--|-----------0-----------------|-----------------|
--------4-----------5-----|--------7-----------0--------|-----0--------0--|
-----2-----------3--------|-----5-----------4-----------|--2--------------|
--0-----------0-----------|--0-----------5--------5S-3--|--------3S-5-----|


  E  E  E  E  E  E  E  E     E  E  E  E  E  E  E  T  S.    E  E  T  S. E   
--------------------------|-----------------------------|-----------------|
--------------------------|-----------------------------|-----------------|
-----------0-----------0--|-----------0-----------------|-----------------|
--------4-----------5-----|--------7-----------0--------|-----0--------0--|
-----2-----------3--------|-----5-----------4-----------|--2--------------|
--0-----------0-----------|--0-----------5--------5S-3--|--------3S-5-----|


  E  E  E  E  E  E  E  E     E  E  E  E  E  E  E  T  S.    E  E  T  S. E   
--------------------------|-----------------------------|-----------------|
--------------------------|-----------------------------|-----------------|
-----------0-----------0--|-----------0-----------------|-----------------|
--------4-----------5-----|--------7-----------0--------|-----0--------0--|
-----2-----------3--------|-----5-----------4-----------|--2--------------|
--0-----------0-----------|--0-----------5--------5S-3--|--------3S-5-----|


  E  E  E  E  E  E  E  E     E  E  E  E  E  E  E  T  S.    E  E  T  S. E   
--------------------------|-----------------------------|-----------------|
--------------------------|-----------------------------|-----------------|
-----------0-----------0--|-----------0-----------------|-----------------|
--------4-----------5-----|--------7-----------0--------|-----0--------0--|
-----2-----------3--------|-----5-----------4-----------|--2--------------|
--0-----------0-----------|--0-----------5--------5S-3--|--------3S-5-----|


  E  E  E  E  E  E  E  E     E  E  E  E  E  E  E  T  S.    E  E  T  S. E   
--------------------------|-----------------------------|-----------------|
--------------------------|-----------------------------|-----------------|
-----------0-----------0--|-----------0-----------------|-----------------|
--------4-----------5-----|--------7-----------0--------|-----0--------0--|
-----2-----------3--------|-----5-----------4-----------|--2--------------|
--0-----------0-----------|--0-----------5--------5S-3--|--------3S-5-----|


  E  E  E  E  E  E  E  E     E  E  E  E  E  E  E  T  S.    E  E  T  S. E   
--------------------------|-----------------------------|-----------------|
--------------------------|-----------------------------|-----------------|
-----------0-----------0--|-----------0-----------------|-----------------|
--------4-----------5-----|--------7-----------0--------|-----0--------0--|
-----2-----------3--------|-----5-----------4-----------|--2--------------|
--0-----------0-----------|--0-----------5--------5S-3--|--------3S-5-----|


  E  E  E  E  E  E  E  E     E  E  E  E  E  E  E  T  S.    E  E  T  S. E   
--------------------------|-----------------------------|-----------------|
--------------------------|-----------------------------|-----------------|
-----------0-----------0--|-----------0-----------------|-----------------|
--------4-----------5-----|--------7-----------0--------|-----0--------0--|
-----2-----------3--------|-----5-----------4-----------|--2--------------|
--0-----------0-----------|--0-----------5--------5S-3--|--------3S-5-----|


  E  E  E  E  E  E  E  E     E  E  E  E  E  E  E  T  S.    E  E  T  S. E   
--------------------------|-----------------------------|-----------------|
--------------------------|-----------------------------|-----------------|
-----------0-----------0--|-----------0-----------------|-----------------|
--------4-----------5-----|--------7-----------0--------|-----0--------0--|
-----2-----------3--------|-----5-----------4-----------|--2--------------|
--0-----------0-----------|--0-----------5--------5S-3--|--------3S-5-----|


  E  E  E  E  E  E  E  E     E  E  E  E  E  E  E  T  S.    E  E  T  S. E   
--------------------------|-----------------------------|-----------------|
--------------------------|-----------------------------|-----------------|
-----------0-----------0--|-----------0-----------------|-----------------|
--------4-----------5-----|--------7-----------0--------|-----0--------0--|
-----2-----------3--------|-----5-----------4-----------|--2--------------|
--0-----------0-----------|--0-----------5--------5S-3--|--------3S-5-----|


  E  E  E  E  E  E  E  E     E  E  E  E  E  E  E  T  S.    E  E  T  S. E   
--------------------------|-----------------------------|-----------------|
--------------------------|-----------------------------|-----------------|
-----------0-----------0--|-----------0-----------------|-----------------|
--------4-----------5-----|--------7-----------0--------|-----0--------0--|
-----2-----------3--------|-----5-----------4-----------|--2--------------|
--0-----------0-----------|--0-----------5--------5S-3--|--------3S-5-----|


  E  E  E  E  E  E  E  E     E  E  E  E  E  E  E  T  S.    E  E  T  S. E   
--------------------------|-----------------------------|-----------------|
--------------------------|-----------------------------|-----------------|
-----------0-----------0--|-----------0-----------------|-----------------|
--------4-----------5-----|--------7-----------0--------|-----0--------0--|
-----2-----------3--------|-----5-----------4-----------|--2--------------|
--0-----------0-----------|--0-----------5--------5S-3--|--------3S-5-----|


  E  E  E  E  E  E  E  E     E  E  E  E  E  E  E  T  S.    E  E  T  S. E   
--------------------------|-----------------------------|-----------------|
--------------------------|-----------------------------|-----------------|
-----------0-----------0--|-----------0-----------------|-----------------|
--------4-----------5-----|--------7-----------0--------|-----0--------0--|
-----2-----------3--------|-----5-----------4-----------|--2--------------|
--0-----------0-----------|--0-----------5--------5S-3--|--------3S-5-----|


  E  E  E  E  E  E  E  E     E  E  E  E  E  E  E  T  S.    E  E  T  S. E   
--------------------------|-----------------------------|-----------------|
--------------------------|-----------------------------|-----------------|
-----------0-----------0--|-----------0-----------------|-----------------|
--------4-----------5-----|--------7-----------0--------|-----0--------0--|
-----2-----------3--------|-----5-----------4-----------|--2--------------|
--0-----------0-----------|--0-----------5--------5S-3--|--------3S-5-----|


                                              |--3--|              
  Q    S S S  S S S S  S S S S  S    H        S  S  S S S S S S S  
----------------------------------|-------------------------------|
----------------------------------|--L----------------------------|
--------------------5S-4-----5S-4-|-------------------------------|
-----------5S-4-----5S-4-----5S-4-|--L--------0h-2p-0-------------|
-----------5S-4-----3S-2-----3S-2-|--L----------------3-2-0-------|
--0----0-0-3S-2-0-0------0-0------|-------------------------3-2-3-|


  Q    S S S  S S S S  S S S S  S    E  S S S S S S S S E  S S E   
----------------------------------|-------------------------------|
----------------------------------|-------------------------------|
--------------------5S-4-----5S-4-|--L----------------------------|
-----------5S-4-----5S-4-----5S-4-|--L----------------------------|
-----------5S-4-----3S-2-----3S-2-|--L--2-2-2-2-2-2-3-2------3-3--|
--0----0-0-3S-2-0-0------0-0------|---------------------3--L-2-1--|


                                              |--3--|              
  Q    S S S  S S S S  S S S S  S    H        S  S  S S S S S S S  
----------------------------------|-------------------------------|
----------------------------------|-------------------------------|
--------------------5S-4-----5S-4-|--L----------------------------|
-----------5S-4-----5S-4-----5S-4-|--L--------0h-2p-0-------------|
-----------5S-4-----3S-2-----3S-2-|--L----------------3-2-0-------|
--0----0-0-3S-2-0-0------0-0------|-------------------------3-2-3-|


  Q    S S S  S S S S  S S S S  S    W                   W                 
----------------------------------|-------------------|-------------------|
----------------------------------|-------------------|-------------------|
--------------------5S-4-----5S-4-|--4----------------|--4----------------|
-----------5S-4-----5S-4-----5S-4-|--4----------------|--4----------------|
-----------5S-4-----3S-2-----3S-2-|--2----------------|--2----------------|
--0----0-0-3S-2-0-0------0-0------|-------------------|-------------------|


  E  E  E  E  E  E  E  E     E  E  E  E  E  E  E  T  S.    E  E  T  S. E   
--------------------------|-----------------------------|-----------------|
--------------------------|-----------------------------|-----------------|
-----------0-----------0--|-----------0-----------------|-----------------|
--------4-----------5-----|--------7-----------0--------|-----0--------0--|
-----2-----------3--------|-----5-----------4-----------|--2--------------|
--0-----------0-----------|--0-----------5--------5S-3--|--------3S-5-----|


  E  E  E  E  E  E  E  E     E  E  E  E  E  E  E  T  S.    E  E  T  S. E   
--------------------------|-----------------------------|-----------------|
--------------------------|-----------------------------|-----------------|
-----------0-----------0--|-----------0-----------------|-----------------|
--------4-----------5-----|--------7-----------0--------|-----0--------0--|
-----2-----------3--------|-----5-----------4-----------|--2--------------|
--0-----------0-----------|--0-----------5--------5S-3--|--------3S-5-----|


  E  E  E  E  E  E  E  E     E  E  E  E  E  E  E  T  S.    E  E  T  S. E   
--------------------------|-----------------------------|-----------------|
--------------------------|-----------------------------|-----------------|
-----------0-----------0--|-----------0-----------------|-----------------|
--------4-----------5-----|--------7-----------0--------|-----0--------0--|
-----2-----------3--------|-----5-----------4-----------|--2--------------|
--0-----------0-----------|--0-----------5--------5S-3--|--------3S-5-----|


  E  E  E  E  E  E  E  E     E  E  E  E  E  E  E  T  S.    E  E  T  S. E   
--------------------------|-----------------------------|-----------------|
--------------------------|-----------------------------|-----------------|
-----------0-----------0--|-----------0-----------------|-----------------|
--------4-----------5-----|--------7-----------0--------|-----0--------0--|
-----2-----------3--------|-----5-----------4-----------|--2--------------|
--0-----------0-----------|--0-----------5--------5S-3--|--------3S-5-----|


  E  E  E  E  E  E  E  E     E  E  E  E  E  E  E  T  S.    E  E  T  S. E   
--------------------------|-----------------------------|-----------------|
--------------------------|-----------------------------|-----------------|
-----------0-----------0--|-----------0-----------------|-----------------|
--------4-----------5-----|--------7-----------0--------|-----0--------0--|
-----2-----------3--------|-----5-----------4-----------|--2--------------|
--0-----------0-----------|--0-----------5--------5S-3--|--------3S-5-----|


  E  E  E  E  E  E  E  E     E  E  E  E  E  E  E  T  S.    E  E  T  S. E   
--------------------------|-----------------------------|-----------------|
--------------------------|-----------------------------|-----------------|
-----------0-----------0--|-----------0-----------------|-----------------|
--------4-----------5-----|--------7-----------0--------|-----0--------0--|
-----2-----------3--------|-----5-----------4-----------|--2--------------|
--0-----------0-----------|--0-----------5--------5S-3--|--------3S-5-----|


  E  E  E  E  E  E  E  E     E  E  E  E  E  E  E  T  S.    E  E  T  S. E   
--------------------------|-----------------------------|-----------------|
--------------------------|-----------------------------|-----------------|
-----------0-----------0--|-----------0-----------------|-----------------|
--------4-----------5-----|--------7-----------0--------|-----0--------0--|
-----2-----------3--------|-----5-----------4-----------|--2--------------|
--0-----------0-----------|--0-----------5--------5S-3--|--------3S-5-----|


  E  E  E  E  E  E  E  E     E  E  E  E  E  E  E  T  S.    E  E  T  S. E   
--------------------------|-----------------------------|-----------------|
--------------------------|-----------------------------|-----------------|
-----------0-----------0--|-----------0-----------------|-----------------|
--------4-----------5-----|--------7-----------0--------|-----0--------0--|
-----2-----------3--------|-----5-----------4-----------|--2--------------|
--0-----------0-----------|--0-----------5--------5S-3--|--------3S-5-----|


  E  E  E  E  E  E  E  E     E  E  E  E  E  E  E  T  S.    E  E  T  S. E   
--------------------------|-----------------------------|-----------------|
--------------------------|-----------------------------|-----------------|
-----------0-----------0--|-----------0-----------------|-----------------|
--------4-----------5-----|--------7-----------0--------|-----0--------0--|
-----2-----------3--------|-----5-----------4-----------|--2--------------|
--0-----------0-----------|--0-----------5--------5S-3--|--------3S-5-----|


  E  E  E  E  E  E  E  E     E  E  E  E  E  E  E  T  S.    E  E  T  S. E   
--------------------------|-----------------------------|-----------------|
--------------------------|-----------------------------|-----------------|
-----------0-----------0--|-----------0-----------------|-----------------|
--------4-----------5-----|--------7-----------0--------|-----0--------0--|
-----2-----------3--------|-----5-----------4-----------|--2--------------|
--0-----------0-----------|--0-----------5--------5S-3--|--------3S-5-----|


  Q    S S S  S S S S  S S S S  S    H        T  S  T S S S S S S  
----------------------------------|-------------------------------|
----------------------------------|-------------------------------|
--------------------5S-4-----5S-4-|--L----------------------------|
-----------5S-4-----5S-4-----5S-4-|--L--------0h-2p-0-------------|
-----------5S-4-----3S-2-----3S-2-|--L----------------3-2-0-------|
--0----0-0-3S-2-0-0------0-0------|-------------------------3-2-3-|


  Q    S S S  S S S S  S S S S  S    E  S S S S S S S S E.  S E   
----------------------------------|------------------------------|
----------------------------------|------------------------------|
--------------------5S-4-----5S-4-|--L---------------------------|
-----------5S-4-----5S-4-----5S-4-|--L---------------------------|
-----------5S-4-----3S-2-----3S-2-|--L--2-2-2-2-2-2-3-2-----3-3--|
--0----0-0-3S-2-0-0------0-0------|---------------------3---2-1--|


  Q    S S S  S S S S  S S S S  S    H        T  S  T S S S S S S  
----------------------------------|-------------------------------|
----------------------------------|-------------------------------|
--------------------5S-4-----5S-4-|--L----------------------------|
-----------5S-4-----5S-4-----5S-4-|--L--------0h-2p-0-------------|
-----------5S-4-----3S-2-----3S-2-|--L----------------3-2-0-------|
--0----0-0-3S-2-0-0------0-0------|-------------------------3-2-3-|


  Q    S S S  S S S S  S S S S  S    W                   T  S  T S S S S S S  
----------------------------------|-------------------|----------------------|
----------------------------------|-------------------|----------------------|
--------------------5S-4-----5S-4-|--4----------------|----------------------|
-----------5S-4-----5S-4-----5S-4-|--4----------------|--0h-2p-0-------------|
-----------5S-4-----3S-2-----3S-2-|--2----------------|----------3-2-0-------|
--0----0-0-3S-2-0-0------0-0------|-------------------|----------------3-2-3-|


  Q    S S S  S S S S  S S S S  S    W                   T  S  T S S S S S S  
----------------------------------|-------------------|----------------------|
----------------------------------|-------------------|----------------------|
--------------------5S-4-----5S-4-|--4----------------|----------------------|
-----------5S-4-----5S-4-----5S-4-|--4----------------|--0h-2p-0-------------|
-----------5S-4-----3S-2-----3S-2-|--2----------------|----------3-2-0-------|
--0----0-0-3S-2-0-0------0-0------|-------------------|----------------3-2-3-|


  W                   W                   W                                     
-------------------|-------------------|-------------------|-------------------|
-------------------|-------------------|-------------------|-------------------|
-------------------|-------------------|-------------------|-------------------|
--2----------------|--L----------------|--L----------------|-------------------|
--2----------------|--L----------------|--L----------------|-------------------|
--0----------------|--L----------------|--L----------------|-------------------|


  E  E  E  E  E  E  E  E     E  E  E  E  E  E  E  E   
--------------------------|--------------------------|
--------------------------|--------------------------|
--------------------------|--------------------------|
--------------------------|--------------------------|
--------------------------|--------------------------|
--0--0--0--0--0--0--0--0--|--0--0--0--0--0--0--0--0--|


  E  E  E  E  E  E  E  E     E  E  E  E  E  E  E  E   
--------------------------|--------------------------|
--------------------------|--------------------------|
--------------------------|--------------------------|
--------------------------|--------------------------|
--------------------------|--------------------------|
--0--0--0--0--0--0--0--0--|--0--0--0--0--0--0--0--0--|


  E   E  E  E   E  E  E  E     E  E  E  E  E  E  E  E   
----------------------------|--------------------------|
----------------------------|--------------------------|
----------------------------|--------------------------|
--0h--2-----0h--2-----------|--------------------------|
--0h--2-----0h--2-----------|--------------------------|
-------------------0--0--0--|--0--0--0--0--0--0--0--0--|


  E   E  E  E   E  E  E   E     E  E   E  E  E  E  E  E   
-----------------------------|---------------------------|
-----------------------------|---------------------------|
-----------------------------|---------------------------|
--0h--1-----0h--1-----0h--1--|-----0h--2-----------------|
--0h--1-----0h--1-----0h--1--|-----0h--2-----------------|
-----------------------------|------------0--0--0--0--0--|


  E   E  E  E   E  E  E  E     E  E  E  E  E  E  E  E   
----------------------------|--------------------------|
----------------------------|--------------------------|
----------------------------|--------------------------|
--0h--1-----0h--1-----------|--------------------------|
--0h--1-----0h--1-----------|--------------------------|
-------------------0--0--0--|--0--0--0--0--0--0--0--0--|


  E   E  E  E   E  E  E   E     E  E   E  E  E  E  E  E   
-----------------------------|---------------------------|
-----------------------------|---------------------------|
-----------------------------|---------------------------|
--0h--1-----0h--1-----0h--1--|-----0h--2-----------------|
--0h--1-----0h--1-----0h--1--|-----0h--2-----------------|
-----------------------------|------------0--0--0--0--0--|


  E   E  E  E   E  E  E  E     E  E  E  E  E  E  E  E   
----------------------------|--------------------------|
----------------------------|--------------------------|
----------------------------|--------------------------|
--0h--1-----0h--1-----------|--------------------------|
--0h--1-----0h--1-----------|--------------------------|
-------------------0--0--0--|--0--0--0--0--0--0--0--0--|


  E   E  E  E   E  E  E   E     E  E   E  E  E  E  E  E   
-----------------------------|---------------------------|
-----------------------------|---------------------------|
-----------------------------|---------------------------|
--0h--1-----0h--1-----0h--1--|-----0h--2-----------------|
--0h--1-----0h--1-----0h--1--|-----0h--2-----------------|
-----------------------------|------------0--0--0--0--0--|


  E   E  E  E   E  E  E  E     E  E  E  E  E  E  E  E   
----------------------------|--------------------------|
----------------------------|--------------------------|
----------------------------|--------------------------|
--0h--1-----0h--1-----------|--------------------------|
--0h--1-----0h--1-----------|--------------------------|
-------------------0--0--0--|--0--0--0--0--0--0--0--0--|


  E   E  E  E   E  E  E   E     E  E   E  E  E  E  E  E   
-----------------------------|---------------------------|
-----------------------------|---------------------------|
-----------------------------|---------------------------|
--0h--1-----0h--1-----0h--1--|-----0h--2-----------------|
--0h--1-----0h--1-----0h--1--|-----0h--2-----------------|
-----------------------------|------------0--0--0--0--0--|


  S E  S H.              S E  S H.              S E  S H.            
----------------------|----------------------|----------------------|
----------------------|----------------------|----------------------|
----------------------|-------7-7------------|----------------------|
--0-2--2-2------------|--0-2--7-7------------|--0-2--3-3------------|
--0-2--2-2------------|--0-2--5-5------------|--0-2--3-3------------|
-------0-0------------|----------------------|-------1-1------------|


  S E  S Q    S E  S Q       S E  S H.              S E  S H.            
--------------------------|----------------------|----------------------|
--------------------------|----------------------|----------------------|
-------5-5---------4-4----|----------------------|-------7-7------------|
--0-2--5-5----5-4--4-4----|--0-2--2-2------------|--0-2--7-7------------|
--0-2--3-3----3-2--2-2----|--0-2--2-2------------|--0-2--5-5------------|
--------------------------|-------0-0------------|----------------------|


  S E  S H.              S E  S Q    S E  S Q     
----------------------|--------------------------|
----------------------|--------------------------|
----------------------|-------5-5---------4-4----|
--0-2--3-3------------|--0-2--5-5----5-4--4-4----|
--0-2--3-3------------|--0-2--3-3----3-2--2-2----|
-------1-1------------|--------------------------|


  S S S S S S S S S S S S  Q       E   E  E  E   E  E  E  E   
--------------------------------|----------------------------|
--------------------------------|----------------------------|
--------------------------------|----------------------------|
--------------------------------|--0h--1-----0h--1-----------|
--------------------------------|--0h--1-----0h--1-----------|
--0-0-0-0-0-0-0-0-0-0-0-0-12----|-------------------0--0--0--|


  E  E  E  E  E  E  E  E     E   E  E  E   E  E  E   E   
--------------------------|-----------------------------|
--------------------------|-----------------------------|
--------------------------|-----------------------------|
--------------------------|--0h--1-----0h--1-----0h--1--|
--------------------------|--0h--1-----0h--1-----0h--1--|
--0--0--0--0--0--0--0--0--|-----------------------------|


  E  E   E  E  E  E  E  E     E   E  E  E   E  E  E  E   
---------------------------|----------------------------|
---------------------------|----------------------------|
---------------------------|----------------------------|
-----0h--2-----------------|--0h--1-----0h--1-----------|
-----0h--2-----------------|--0h--1-----0h--1-----------|
------------0--0--0--0--0--|-------------------0--0--0--|


  E  E  E  E  E  E  E  E     E   E  E  E   E  E  E   E   
--------------------------|-----------------------------|
--------------------------|-----------------------------|
--------------------------|-----------------------------|
--------------------------|--0h--1-----0h--1-----0h--1--|
--------------------------|--0h--1-----0h--1-----0h--1--|
--0--0--0--0--0--0--0--0--|-----------------------------|


  E  E   E  E  E  E  E  E     E   E  E  E   E  E  E  E   
---------------------------|----------------------------|
---------------------------|----------------------------|
---------------------------|----------------------------|
-----0h--2-----------------|--0h--1-----0h--1-----------|
-----0h--2-----------------|--0h--1-----0h--1-----------|
------------0--0--0--0--0--|-------------------0--0--0--|


  E  E  E  E  E  E  E  E     E   E  E  E   E  E  E   E   
--------------------------|-----------------------------|
--------------------------|-----------------------------|
--------------------------|-----------------------------|
--------------------------|--0h--1-----0h--1-----0h--1--|
--------------------------|--0h--1-----0h--1-----0h--1--|
--0--0--0--0--0--0--0--0--|-----------------------------|


  E  E   E  E  E  E  E  E     E   E  E  E   E  E  E  E   
---------------------------|----------------------------|
---------------------------|----------------------------|
---------------------------|----------------------------|
-----0h--2-----------------|--0h--1-----0h--1-----------|
-----0h--2-----------------|--0h--1-----0h--1-----------|
------------0--0--0--0--0--|-------------------0--0--0--|


  E  E  E  E  E  E  E  E     E   E  E  E   E  E  E   E   
--------------------------|-----------------------------|
--------------------------|-----------------------------|
--------------------------|-----------------------------|
--------------------------|--0h--1-----0h--1-----0h--1--|
--------------------------|--0h--1-----0h--1-----0h--1--|
--0--0--0--0--0--0--0--0--|-----------------------------|


  E  E   E  E  E  E  E  E     S E  S Q    E  Q.        S E  S Q    E  Q.      
---------------------------|------------------------|------------------------|
---------------------------|------------------------|------------------------|
---------------------------|------------------------|-------7-7----7---------|
-----0h--2-----------------|--0-2--2-2----2---------|--0-2--7-7----7---------|
-----0h--2-----------------|--0-2--2-2----2---------|--0-2--5-5----5---------|
------------0--0--0--0--0--|-------0-0----0---------|------------------------|


  S E  S H.              S E  S H.              S E  S H.            
----------------------|----------------------|----------------------|
----------------------|----------------------|----------------------|
----------------------|-------7-7------------|----------------------|
--0-2--2-2------------|--0-2--7-7------------|--0-2--3-3------------|
--0-2--2-2------------|--0-2--5-5------------|--0-2--3-3------------|
-------0-0------------|----------------------|-------1-1------------|


  S E  S Q    S E  S Q       S E  S H.              S E  S H.            
--------------------------|----------------------|----------------------|
--------------------------|----------------------|----------------------|
-------5-5---------4-4----|----------------------|-------7-7------------|
--0-2--5-5----5-4--4-4----|--0-2--2-2------------|--0-2--7-7------------|
--0-2--3-3----3-2--2-2----|--0-2--2-2------------|--0-2--5-5------------|
--------------------------|-------0-0------------|----------------------|


  S E  S H.              S E  S Q    S E  S Q       S E  S H.            
----------------------|--------------------------|----------------------|
----------------------|--------------------------|----------------------|
----------------------|-------5-5---------4-4----|----------------------|
--0-2--3-3------------|--0-2--5-5----5-4--4-4----|--0-2--2-2------------|
--0-2--3-3------------|--0-2--3-3----3-2--2-2----|--0-2--2-2------------|
-------1-1------------|--------------------------|-------0-0------------|


  S E  S H.              S E  S H.              S E  S Q    S E  S Q     
----------------------|----------------------|--------------------------|
----------------------|----------------------|--------------------------|
-------7-7------------|----------------------|-------5-5---------4-4----|
--0-2--7-7------------|--0-2--3-3------------|--0-2--5-5----5-4--4-4----|
--0-2--5-5------------|--0-2--3-3------------|--0-2--3-3----3-2--2-2----|
----------------------|-------1-1------------|--------------------------|


  S E  S H.              S E  S H.              S E  S H.            
----------------------|----------------------|----------------------|
----------------------|----------------------|----------------------|
----------------------|-------7-7------------|----------------------|
--0-2--2-2------------|--0-2--7-7------------|--0-2--3-3------------|
--0-2--2-2------------|--0-2--5-5------------|--0-2--3-3------------|
-------0-0------------|----------------------|-------1-1------------|


  S E  S Q    S E  S Q       S E  S H.              S E  S H.            
--------------------------|----------------------|----------------------|
--------------------------|----------------------|----------------------|
-------5-5---------4-4----|----------------------|-------7-7------------|
--0-2--5-5----5-4--4-4----|--0-2--2-2------------|--0-2--7-7------------|
--0-2--3-3----3-2--2-2----|--0-2--2-2------------|--0-2--5-5------------|
--------------------------|-------0-0------------|----------------------|


  S E  S H.              S E  S Q    S E  S Q       S E  S H.            
----------------------|--------------------------|----------------------|
----------------------|--------------------------|----------------------|
----------------------|-------5-5---------4-4----|----------------------|
--0-2--3-3------------|--0-2--5-5----5-4--4-4----|--0-2--2-2------------|
--0-2--3-3------------|--0-2--3-3----3-2--2-2----|--0-2--2-2------------|
-------1-1------------|--------------------------|-------0-0------------|


  S E  S H.              S E  S H.              S E  S Q    S E  S Q     
----------------------|----------------------|--------------------------|
----------------------|----------------------|--------------------------|
-------7-7------------|----------------------|-------5-5---------4-4----|
--0-2--7-7------------|--0-2--3-3------------|--0-2--5-5----5-4--4-4----|
--0-2--5-5------------|--0-2--3-3------------|--0-2--3-3----3-2--2-2----|
----------------------|-------1-1------------|--------------------------|


  S E  S H        Q        S E  S H        Q        S E  S H        Q      
------------------------|------------------------|------------------------|
------------------------|------------------------|------------------------|
------------------------|-------7-7--------------|------------------------|
--0-2--2-2--------8S----|--0-2--7-7--------8S----|--0-2--3-3--------8S----|
--0-2--2-2--------8S----|--0-2--5-5--------8S----|--0-2--3-3--------8S----|
-------0-0--------6S----|------------------6S----|-------1-1--------6S----|


                                         |--3--|        
  S E  S Q    S E  S Q       S E  S Q    E  E  E  Q     
--------------------------|----------------------------|
--------------------------|----------------------------|
-------5-5---------4-4----|----------------------------|
--0-2--5-5----5-4--4-4----|--0-2--2-2----2--2--2--2----|
--0-2--3-3----3-2--2-2----|--0-2--2-2----2--2--2--2----|
--------------------------|-------0-0----0--0--0--0----|


              |--3--|                      |--3--|        
  S E  S Q    E  E  E  Q       S E  S Q    E  E  E  Q     
----------------------------|----------------------------|
----------------------------|----------------------------|
-------7-7----7--7--7--7----|----------------------------|
--0-2--7-7----7--7--7--7----|--0-2--3-3----3--3--3--3----|
--0-2--5-5----5--5--5--5----|--0-2--3-3----3--3--3--3----|
----------------------------|-------1-1----1--1--1--1----|


              |--3--|          |--3--|       |--3--|        
  S E  S Q    E  E  E  Q       E  E  E  Q    E  E  E  Q     
----------------------------|------------------------------|
----------------------------|------------------------------|
-------5-5----4--4--4--4----|--4--4--4--4----4--4--4--4----|
--0-2--5-5----4--4--4--4----|--4--4--4--4----4--4--4--4----|
--0-2--3-3----2--2--2--2----|--2--2--2--2----2--2--2--2----|
----------------------------|------------------------------|


  Q    Q    Q    Q     
----------------------|
----------------------|
--4----2--------------|
--4----2----5----4----|
--2----0----5----4----|
------------3----2----|


  T T T T T T T T T T T T T T T T T T T T T T T T T T T T T T T T  
------------------------------------------------------------------|
------------------------------------------------------------------|
------------------------------------------------------------------|
--2-2-2-2-2-2-2-2-2-2-2-2-2-2-2-2-2-2-2-2-2-2-2-2-2-2-2-2-2-2-2-2-|
--2-2-2-2-2-2-2-2-2-2-2-2-2-2-2-2-2-2-2-2-2-2-2-2-2-2-2-2-2-2-2-2-|
--0-0-0-0-0-0-0-0-0-0-0-0-0-0-0-0-0-0-0-0-0-0-0-0-0-0-0-0-0-0-0-0-|


  T T T T T T T T T T T T T T T T T T T T T T T T T T T T T T T T  
------------------------------------------------------------------|
------------------------------------------------------------------|
------------------------------------------------------------------|
--2-2-2-2-2-2-2-2-2-2-2-2-2-2-2-2-2-2-2-2-2-2-2-2-2-2-2-2-2-2-2-2-|
--2-2-2-2-2-2-2-2-2-2-2-2-2-2-2-2-2-2-2-2-2-2-2-2-2-2-2-2-2-2-2-2-|
--0-0-0-0-0-0-0-0-0-0-0-0-0-0-0-0-0-0-0-0-0-0-0-0-0-0-0-0-0-0-0-0-|


  Q    H        Q      
---------------------||
---------------------||
---------------------||
--2------------------||
--2------------------||
--0------------------||




Duration Legend
---------------
W - whole
H - half
Q - quarter
E - 8th
S - 16th
T - 32nd
X - 64th
. - note dotted
|-n-|  - n-tuplets


Tablature Legend
----------------
L - tied note
x - dead note
g - grace note
(n) - ghost note
> - accentuded note
NH - natural harmonic
AH - artificial harmonic
TH - tapped harmonic
SH - semi harmonic
PH - pitch harmonic
h - hammer on
p - pull off
b - bend
br - bendRelease
pb - preBend
pbr - preBendRelease
brb - bendReleaseBend
\n/ - tremolo bar dip
\n - tremolo bar dive
-/n - tremolo bar Release up
/n\ - tremolo bar inverted dip
/n - tremolo bar return
-\n - tremolo bar Release down
S - shift slide
s - legato slide
/ -  slide into from below or out of upwards
\ -  slide into from above or out of downwards
~ - vibrato
W - wide vibrato
tr - trill
TP - tremolo picking
T - tapping
S - slap
P - pop
< - fade in
^ - brush up
v - brush down

Kommentar

Log ind eller opret en bruger, for at skrive en kommentar


Kontakt os • Hvis du oplever nogen problemer, finder fejl eller har forslag. Copyright 2007 - 2018