Log ind         eller        Opret en gratis konto
 
  Tilbage

Musicmate.dk | Nickelback - Savin me Guitar Tabs/Fingerspil

Nickelback - Savin me

Guitar Tabs/Fingerspil
         Slå akkorder op    Print sang  Se forfatter 


Main Riff 
|----------------------------------------| 
|----------------------------------------| 
|---2-0--------2-0-2---2-0--2-------0----| 
|---------------------------------3------| 
|-------------------------------------5~-| 
|-3------0-1-3-------3--------0-0--------| 
 
|----------------------------------------| 
|----------------------------------------| 
|---2-0--------2-0-2---2-0--2-----2-0----| 
|----------------------------------------| 
|-------------------------------------5~-| 
|-3------0-1-3-------3--------3-3--------| 
 
Chorus Chords: 
|-3-0-0-1-| 
|-3-1-1-1-| 
|-0-2-0-2-| 
|-0-2-2-3-| 
|-2-0-3-3-| 
|-3-----1-| 
 
(clean) 
G       Am       C               F 
Show me what its like (to be the last one standing) 
    G        Am         C                       F 
And teach me wrong from right (and ill show you what i can be) 
(distortion) 
    G              Am           C                    F x x  G x x 
And say it for me, say it to me.  And ill leave this life behind me. 
G             Am           G 
Say it if its worth saving me. 
 
Solo: 
|--------------------------------------------------------------------| 
|--------------------------------------------------------------------| 
|--------------------------------------------------------------------| 
|-7hb-r-5---5-7hb-r-5---5-7hb-r-5---5----------7hb-5-5---7hb-r-5---5-| 
|---------8-----------8-----------8---5-5-5--8---------8---------8---| 
|--------------------------------------------------------------------| 
 
|---------------------------------------------------------| 
|---------------------------------------------------------| 
|---------------------------------------------------------| 
|---------7hb-r-5--5/7-7-7-7/8-8-8-8/10-10-10-10/12-12-12-| 
|-5-5-5-8-------------------------------------------------| 
|---------------------------------------------------------| 
 
|----------------------------------------------------------------| 
|-10hb-r-8----8-10hb-r-8----8-10hb-r-8----8----------10hb-8-8----| 
|----------10------------10------------10---7-7-7-10----------10-| 
|----------------------------------------------------------------| 
|----------------------------------------------------------------| 
|----------------------------------------------------------------| 
 
|-------------7-7-7-7-10\7-8-10-14fb---| 
|-10-10-10-10--------------------------| 
|--------------------------------------| 
|--------------------------------------| 
|--------------------------------------| 
|--------------------------------------| 
 
Now basically play the Chorus til the end. 
 

Kommentar

Log ind eller opret en bruger, for at skrive en kommentar


Kontakt os • Hvis du oplever nogen problemer, finder fejl eller har forslag. Copyright 2007 - 2018