Log ind         eller        Opret en gratis konto
 
  Tilbage

Musicmate.dk | Superheroes - Someone Else Guitar Akkorder

Superheroes - Someone Else

Guitar Akkorder
         Slå akkorder op    Print sang  Se forfatter 



VERS:
                    Cm7
My face been washed away
                     Bb        Gm7
Of the tears I cried today
Gm7                          Cm7
But all I need is for her to stay
                           Bb                     Gm7
Though I know that all her intentions might be good
         F              F
But if I catch her with another man
  F                  F
I wouldn’t stand the pain


OMKVÆD:
  Bb             Bb/A    Gm7   F    Eb    
I know she wants someone else (Aaah ah)
(Eb)                         Bb       Bb/A    Gm7    F    Eb
I can tell it by the way she holds me
(Eb)                                 Bb   Bb/A   Gm7   F   Eb
And she can see in my eyes I’ve been crying (Aaah ah)
(Eb)                               Bb    Bb/A   Gm7   F   Eb
Look into my eyes and see that I’m dying
(Eb)                                     (Hold den i Eb)
’Cause I know she wants someone else


BRIDGE:
     Cm7
Aaah ooh

Dah dah dah
Bb         Gm7
Dah dah dah


VERS:
                  Cm7
I wonder if she’s running through the days

Or if she is on a date, Oh no
                  Bb              Gm7
’Cause there’s no message for me
         F                      F
But if I catch her with another man
           F         F
I wouldn’t stand the pain


 (Bas tab til omkvædet.) -
G|----------------------------------------------------------------------------
D|----------------------------------------------------------------------------
A|----------------------------------------6--------5--------3--------5--------
E|----6--------5--------3--------1--------------------------------------------

------------------------------------------------------------------------------|
------------------------------------------------------------------------------|
------------------------------------------6-6-6-6--5-5-5-5--3-3-3-3--5-5-5----|
------6-6-6-6--5-5-5-5--3-3-3-3--1-1-1-1--------------------------------------|

I know she wants someone else (Aaah ah)
I can tell it by the way she holds me


OMKVÆD:
  Bb             Bb/A    Gm7   F    Eb    
I know she wants someone else (Aaah ah)
(Eb)                         Bb       Bb/A    Gm7    F    Eb
I can tell it by the way she holds me
(Eb)                                 Bb   Bb/A   Gm7   F   Eb
And she can see in my eyes I’ve been crying (Aaah ah)
(Eb)                               Bb    Bb/A   Gm7   F   Eb
Look into my eyes and see that I’m dying
(Eb)                                        F
’Cause I know she wants someone else

--------------------------------------------------------------------------------
This tab was downloaded and printed from www.guitarist.gr








Kommentar

Log ind eller opret en bruger, for at skrive en kommentar


Kontakt os • Hvis du oplever nogen problemer, finder fejl eller har forslag. Copyright 2007 - 2018